( Tablatures de Basse )
_

Tablatures
de l'album
Californication

( Pochette | Paroles | << Préc | Suiv >>
_



( Around The World )


Tempo Moderately Slow (96)
intro :
   |---------------------------------|---------------------------------|
   |---------------------------------|---------------------------------|
   |---------------------------------|---------------------------------|
   |-0-------------------------------|-0-------0-------0-------0-------|

   |-7h9-9-7h9-9-7h9-9-7h9-9-9-7-----|-7h9-9-7h9-9-7h9-9-7-------------|
   |-----------------------------9-7-|---------------------9-7---------|
   |---------------------------------|-------------------------7-5-----|
   |---------------------------------|-----------------------------7-5-| (4 fois)


[guitar]  (2 mesures)


verse :
   |---------------------------------|---------------------------------| 
   |----3-5------2-3----3-5------32--|----3-5-----2-3-----3-5------32--| 
   |-------------------------------1-|----------------------------1--31| 
   |-3-------1-3-----3-------1-3-----|-3------1-3------3-------1-3-----| 

   |---------------------------------|---------------------------------| 
   |----3-5------2-3----3-5----------|----3-5-----2-3-----3-5-------035| 
   |-------------------------3~~~5~~~|--------------------------1-13---| 
   |-3-------1-3-----3---------------|-3------1-3------3-------3-3-----| 


chorus :
   |---------------------------------|---------------------------------|
   |-----------------10------13------|-----------------12----------12--|
   |-11------------------------------|-10----------10------------------|
   |---------------------------------|---------------------------------|

   |---------------------------------|---------------------------------| 
   |-------------------------10------|-----------------10----------10--| 
   |-8---------------11--------------|-8-----------8-------------------| 
   |---------------------------------|---------------------------------| (2 fois)


[guitar]  (2 mesures)


verse :
   |---------------------------------|---------------------------------| 
   |----3-5------2-3----3-5------32--|----3-5-----2-3-----3-5-----32323| 
   |-------------------------------1-|---------------------------1-----| 
   |-3-------1-3-----3-------1-3-----|-3------1-3------3-------13------| 

   |---------------------------------|---------------------------------| 
   |----3-5------2-3----3-5----------|----3-5-----2-3-----3-5-------035| 
   |-------------------------3~~~5~~~|--------------------------1-13---| 
   |-3-------1-3-----3---------------|-3------1-3------3-------3-3-----| 


[chorus]


interlude :
   |-7h9-9-7h9-9-7h9-9-7h9-9-9-7-----|-7h9-9-7h9-9-7h9-9-7-------------|
   |-----------------------------9-7-|---------------------9-7---------|
   |---------------------------------|-------------------------7-5-----|
   |---------------------------------|-----------------------------7-5-| (4 fois)

   |---------------------------------|
   |----3-5------2-3----3-5--53------|
   |---------------------------53~~~~|
   |-3-------1-3-----3---------------|


[verse]

[chorus (variations)]  (2 fois)


outro :
   |---------------------------------|---------------------------------|
   |-2-3-2---------------------------|-2-3-2---------------------------|
   |-------5---5-5-5-5-5-5-5-5---3---|-------5---5-5-5-5-5-5-5-5---3---|
   |---------------------------5---5-|---------------------------5---5-| (7 fois)

   |---------------------------------|---------------------------------|
   |-2-3-2---------------------------|-2-3-2---------------------------|
   |-------5-/-10--10--10--10----3---|-------5-/-12--12--12--12--\-----|
   |---------------------------5---5-|---------------------------------|



( Parallel Universe )


Tempo Moderately (116)
intro :
   (bass fig.1)
   |-5-5-5-5-5-5-5-5-5-5-5-5-5-5-5-5-|-5-5-5-5-5-5-5-5-5-5-5-5-5-5-5-5-|
   |---------------------------------|---------------------------------|
   |---------------------------------|---------------------------------|
   |---------------------------------|---------------------------------|

   |-3-3-3-3-3-3-3-3-3-3-3-3-3-3-3-3-|-3-3-3-3-3-3-3-3-3-3-3-3-3-3-3-3-|
   |---------------------------------|---------------------------------|
   |---------------------------------|---------------------------------|
   |---------------------------------|---------------------------------|

   |-7-7-7-7-7-7-7-7-7-7-7-7-7-7-7-7-|-8-8-8-8-8-8-8-8-8-8-8-8-8-8-8-8-|
   |---------------------------------|---------------------------------|
   |---------------------------------|---------------------------------|
   |---------------------------------|---------------------------------|

   |-0-0-0-0-0-0-0-0-0-0-0-0-0-0-0-0-|-12121212101010108-8-8-8-7-7-7-7-|
   |---------------------------------|---------------------------------|
   |---------------------------------|---------------------------------|
   |---------------------------------|---------------------------------|

 

verse :
   [bass fig.1]  (2 fois)


chorus :
   |-5-5-5-5-5-5-5-5-5-5-5-5-0-0-0-0-|-1-1-1-1-1-1-1-1-8-8-8-8-8-8-8-8-|
   |---------------------------------|---------------------------------|
   |---------------------------------|---------------------------------|
   |---------------------------------|---------------------------------|

   |-0-0-0-0-0-0-0-0-0-0-0-0-0-0-0-0-|-0-0-0-0-0-0-0-0-0-0-0-0-0-0-0-0-|
   |---------------------------------|---------------------------------|
   |---------------------------------|---------------------------------|
   |---------------------------------|---------------------------------| (2 fois)

 

[verse]

[chorus]

[chorus]


bridge :
   |-5-5-5-5-0-0-0-0-1-1-1-1---------|-5-5-5-5-0-0-0-0-1-1-1-1---------|
   |-------------------------3-3-3-3-|-------------------------3-3-3-3-|
   |---------------------------------|---------------------------------|
   |---------------------------------|---------------------------------| (4 fois)

 

[verse]

[chorus]

[chorus]


outro :
   [bass fig.1]  (4 fois)



( Scar Tissue )


Tempo Moderately Slow (90)
intro :
   |-14------14----1414--14----------|---------------------------------|
   |-----------------------------14--|14h15----15----1515--15------14--|
   |---------------------------------|---------------------------------|
   |---------------------------------|---------------------------------|

   |-14------14----1414--14----------|---------------------------------|
   |-----------------------------14--|14h15----------------------------|
   |---------------------------------|---------------------------------|
   |---------------------------------|---------------------------15\---|

verse :
   |---------------------------------|---------------------------------|
   |---------------------------------|---------------------------------|
   |-8-------8-----------------------|---------------------8-----------|
   |-----------------5---5------X8---|-8/10----10-10-10--------10--8---|

   |---------------------------------|---------------------------------|
   |---------------------------------|---------------------------------|
   |-8-------8-----------------------|---------------------------------|
   |-----------------5---5------X8---|-8/10----10-10-10----X5-8--10-8--|

   |---------------------------------|---------------------------------|
   |---------------------------------|---------------------------------|
   |-8-------8-----------------------|---------------------8-----------|
   |-----------------5---5------X8---|-8/10----10-10-10--------10--8---| (7 fois)


solo :
   |-19--19--19191714--14--1414------|---------------------------------|
   |-------------------------------14|-----14--14----14----15----------|
   |-----------------------------15--|---15--15----15----17----17--19--|
   |---------------------------------|---------------------------------|


verse :
   |-----------------------------------|-------------------------------------| 
   |-----------------------------------|-------------------------------------|
   |-8-8------------------------8------|-8-8------------------------x0-3-5-3-|
   |-----5-5-x8-8/10--10--10-10---10-8-|-----5-5-x8-8/10--10--10-10----------|

   |-----------------------------------| (x2)
   |-----------------------------------|
   |-8-8------------------------8------|
   |-----5-5-x8-8/10--10--10-10---10-8-|

   |-----------------------------------| 
   |-----------------------------------|
   |-8-8-------------------------------|
   |-----5-5-x8-8/10--10--10-10--13--13|


no drums part of verse :
   |-------------------------------------|----------------------------------|
   |-------------------------------------|--------------------/12-10-7------|
   |-8-8------------------------x0-3-5-3-|-8-8-------------------------x10--|
   |-----5-5-x8-8/10--10--10-10----------|-----5-5-x8-8/10-10---------------|


drums back :
   |-----------------------------------| (x2)
   |-----------------------------------|
   |-8-8------------------------8------|
   |-----5-5-x8-8/10--10--10-10---10-8-|

   |-----------------------------------|
   |-----------------------------------|
   |-8-8-------------------------------|
   |-----5-5-x8-8/10--10--13-13--------|


solo :
   |-19------19------19--19--17--14--|-----14------14--14--------------|
   |---------------------------------|---------------------------------|
   |---------------------------------|-----------------------------15--|
   |---------------------------------|---------------------------------|

   |---------------------------------|---------------------------------|
   |---14----------14------14--------|---14----------------------------|
   |-----------15------15----------15|-----------17--17--17--17--17----|
   |---------------------------------|---------------------------------|


   |-19------19------19--21--17--14--|-14--14--17--17/19-17--14--17----|
   |---------------------------------|---------------------------------|
   |---------------------------------|---------------------------------|
   |---------------------------------|---------------------------------|

   |---------------------------------|---------------------------------|
   |-----14----------14------14------|-14------------------------------|
   |-15----------15------15------15--|-----------17--17--17--19--------|
   |---------------------------------|---------------------------------|


verse :
   |-----------------------------------| (x4)
   |-----------------------------------|
   |-8-8------------------------8------|
   |-----5-5-x8-8/10--10--10-10---10-8-|

   |-----------------------------------|
   |-----------------------------------|
   |-8-8-------------------------------|
   |-----5-5-x8-8/10--10--13-13-13-----|


solo part 3 / outro :
   (solo part 2 Twice with some variations)



( Otherside )


Tempo ? ()
intro :
   (bass fig.1)
   |---------------------------------|---------------------------------|
   |---------------------------------|---------------------------------|
   |---------------------------------|-3-----3-----3-------------------|
   |-5-----5-----5-3-1-----1-----1-3-|-----------------3-----3-----3---|


verse :
   [bass fig.1]  (3 fois)


chorus :
   (bass fig.2)
   |---------------------------------|---------------------------------|
   |---------------------------------|---------------------------------|
   |-------------5-/-7---7-7---7-7---|-------------5-/-7---------7-----|
   |-5---5-5---5---------------------|-5---5-5---5---------7-7---------|

   |---------------------------------|---------------------------------|-----|
   |---------------------------------|---------------------------------|-----|
   |-------------5-/-7---7-7---7-----|---------------------------------|-----|
   |-5---5-5---5---------------------|-7---------------5---------------|-¤---|

   [bass fig.2]

   |---------------------------------|---------------------------------|
   |---------------------------------|---------------------------------|
   |---------------------------------|---------------------------------|
   |-7---------------5---------------|-7-------------------------------|

   |---------------------------------|
   |---------------------------------|
   |-----------------7---7---7---7---|
   |-5-----------------7---7---7---7-|


[verse] (variations)

[chorus]

[verse] (variations)


bridge :
   |---------------------------------|---------------------------------|
   |---------------------------------|---------------------5---4---0---|
   |-----7---5-7---------7---5-7-----|---3---3---2-3---3---------------|
   |-0---------------0-----------0-5-|-7-------------------------------|

   |---------------------------------|---------------------------------|
   |---------------------------------|-------------------5-4-2-4-5-2-0-|
   |-----7---5-7---------7---5-7-----|---3---3---2-3---3---------------|
   |-0---------------0-----------0-5-|-7-------------------------------| (2 fois)


[verse] (variations) (2 fois)


outro :
   |---------------------------------|
   |---------------------------------|
   |---------------------------------|
   |-5-------------------------------| fade away



( Get On Top )


Tempo ? ()
verse :
      T T T P P P T T   T T TP P P  T   T T TP P P T T   T T T P P P T
   |--------9-9-7------------9-9-7-----------9-9-7-------------9-9-7-------------------|
   |-------------------------------------------------------------------7-7-7-8-8-9-10--|
   |-----------------------------------------------------------------------------------|
   |--0-0-x-------0-0---0-0-x-------0---0-0-x------0-0---0-0-x-------0-----------------|
   (3 fois)


chorus :
   |----------------------------------|  (4 fois)
   |--7--5/7--5/7--5/7--5/7--5h7p5h7--|
   |----------------------------------|
   |----------------------------------|

   |---------------9-9-9---9--|
   |--7--5/7--5/7-------------|
   |--------------------------|
   |--------------------------|


[verse]

[chorus]


interlude :
      T T P T P T   T P T   T P T 
   |------7---7-------7-------7----|  (8 fois)
   |-------------------------------|
   |--5-x---x---5--/7---7--/8---8--|
   |-------------------------------|

      T T P T P T  P T P T P  T T P T P T  P T P T P
   |------------------------------5---5----5---5---5--|
   |------8---8----8---8---8--------------------------|
   |--------------------------3-x---x---3----x---x----|
   |--6-x---x---6----x---x----------------------------|

      T T P T P T   T P T   T P T  T T P T P T  P T P T P 
   |------7---7-------7-------7--------9---9----9---9---9--|
   |-------------------------------------------------------|
   |--5-x---x---5--/7---7--/8---8--7-x---x---7----x---x----|
   |-------------------------------------------------------|

      T T P T P T  P T P T P  T T P  T P  T  P  T P   T 
   |-------------------------------------------------------|
   |------8---8----8---8---8------10---10----10---10-------|
   |-------------------------------------------------------|
   |--6-x---x---6----x---x----8-x----x----8-----x-----8\5--|

      T T P T P T  P T P  T    T    T    T
   |------------------------------------------|
   |------7---7----7---7----------------------|
   |------------------------------------------|
   |--5-x---x---5----5----5----7----7----7----|


[verse]



( Californication )


Tempo Moderately Slow (96)
intro :
   (bass fig.1)
   |-------------9-------9---7h9p7h--|-------------7-------7-----------|
   |-7-------7---------------------10|-------------------------10------|
   |---------------------------------|-8-------8-----------------------|
   |---------------------------------|---------------------------------|

   |-------------9-------9---7h9p7h--|-------------10------10--7-------|
   |-7-------7---------------------10|---------------------------------|
   |---------------------------------|-8-------8-----------------------|
   |---------------------------------|---------------------------------|


verse :
   [bass fig.1]

   |-------------9-------9---7h9p7h--|-------------7-------7-----------|
   |-7-------7---------------------10|-------------------------10------|
   |---------------------------------|-8-------8-----------------------|
   |---------------------------------|---------------------------------|

   |-------------9-------9---7h9p7h--|-------------10------10--7---\---|
   |-7-------7---------------------10|---------------------------------|
   |---------------------------------|-8-------8-----------------------|
   |---------------------------------|---------------------------------|

   |---------------------------------|---------------------------------|
   |---------------------------------|---------------------------------|
   |-3---3---3---3-------------------|-----------------5-------5---¤---|
   |-----------------3---3---3---3---|-1---1---1---1-------------------|


[verse]


prechorus :
   |---------------------------------|---------------------------------|
   |-7---7-7-7---7-7---7-7---9---10--|---------------------10--9-------|
   |---------------------------------|-8---8-8-8---8-8-8-8---------10--|
   |---------------------------------|---------------------------------|

   |---------------------------------|---------------------------------|
   |-7---7-7-7---7-7---7-7---9---10--|---------------12141412----------|
   |---------------------------------|-8---8-8-8---------------15--14--|
   |---------------------------------|---------------------------------|

   |---------------------------------|---------------------------------|
   |-7---7-7-7---7-7---7-7---9---10--|---------------------10--9-------|
   |---------------------------------|-8---8-8-8---8-8-8-8---------10--|
   |---------------------------------|---------------------------------|

   |---------------------------------|---------------------------------|
   |-7---7-7-7---7-7---7-7---9---10--|---------------------10--9-------|
   |---------------------------------|-8---8-8-8---8-8-8-8---------10--|
   |---------------------------------|---------------------------------|


chorus :
   |---------------------------------|---------------------------------|
   |-7---7-7-7---7-7---7-7---9---10--|-------------------10-9--7-------|
   |---------------------------------|-8---8-8-8---8-8-------------8-\-|
   |---------------------------------|---------------------------------|

   |---------------------------------|---------------------------------|
   |-7---7-7-7---7-7---7-7---9---10--|---------------------------------|
   |---------------------------------|-8---8-8-8---8-8---8-8---8---8-\-|
   |---------------------------------|---------------------------------|

   |---------------------------------|---------------------------------|
   |---------------------------------|---------------------------------|
   |-3-------3-----------------------|-5-------5---5h7-----------------|
   |-----------------3-------3-------|-----------------5-------5-------|

   |---------------------------------|---------------------------------|
   |---------------------------------|---------------------------------|
   |-3-------3-----------2---3---5---|---------------------------------|
   |-----------------3---------------|---------------------------------|


[verse]


[verse]


prechorus :
   |---------------------------------|---------------------------------|
   |-7---7-5-7---7-7---7-7---9---10--|---------------------10--9-------|
   |---------------------------------|-8---8-7-8---8-8---8---------10--|
   |---------------------------------|---------------------------------|

   |---------------------------------|---------------------------------|
   |-7---7-5-7---7-7---7-7---9---10--|---------------10----9---7-------|
   |---------------------------------|-8---8-7-8---8---------------10--|
   |---------------------------------|---------------------------------|

   |---------------------------------|---------------------------------|
   |-7---7-5-7---7-7---7-7---9---10--|---------------------10--9-------|
   |---------------------------------|-8---8-7-8---8-8---8---------10--|
   |---------------------------------|---------------------------------|

   |---------------------------------|---------------------9-----------|
   |-7---7-5-7---7-7---7-7---9---10--|-------------------------10--9---|
   |---------------------------------|-8---8-7-8---8-8-----------------|
   |---------------------------------|---------------------------------|


chorus :
   |---------------------------------|---------------------------------|
   |-7---7-5-7---7-7---7-7---9---10--|---------------------10--9-------|
   |---------------------------------|-8---8-7-8---8-8---8---------10--|
   |---------------------------------|---------------------------------|

   |---------------------------------|---------------------------------|
   |-7---7-5-7---7-7---7-7---9---10--|---------------------------------|
   |---------------------------------|-8---8-7-8-----8/20202020202020--|
   |---------------------------------|---------------------------------|

   |---------------------------------|---------------------------------|
   |---------------------------------|---------------------------------|
   |-3-------3-----------------------|-5-------5---5h7-----------------|
   |-----------------3-------3-------|-----------------5-------5-------|

   |---------------------------------|-----------------7-------7-------|
   |---------------------------------|---------------7---7---7---7---7-|
   |-3-------3---------------3---5---|-----5---5-----------5-------5---|
   |-----------------3---3-----------|---------------------------------|

   |---------------------------------|---------------------------------|
   |---------------------------------|---------------------------------|
   |-3-------3-----------------------|-5-------5---5h7-----------------|
   |-----------------3-------3-------|-----------------5-------5-------|

   |---------------------------------|---------------------------------|
   |---------2-----------------------|---------------------------------|
   |-3---5-------3-3-----2---3---5---|---------------------------------|
   |-----------------3---------------|---------------------------------|


bridge :
   |---------------------------------|---------------------------------|
   |---------------------------------|---------------------------------|
   |-9---9---9---9---9-----------9-\-|-5-----------5-------5---5---/---|
   |---------------------------------|---------------------------------|

   |---------------------------------|---------------------------------|
   |---------------------------------|---------------------------------|
   |-9---9---9---9---9-----------9---|-5-------5---5-------5---5-------|
   |---------------------------------|-----------------------------0---|

   |---------------------------------|---------------------------------|
   |---------------------------------|---------------------------------|
   |-2-------2-------5-------5-------|-----------------------------7---|
   |-----2---------------5-----------|-5---0---5-------0---------------|

   |---------------------------------|---------------------------------|
   |---------------------------------|---------------------------------|
   |-9-----------9---9-----------9-/-|-5-----------5---5-----------5---|
   |---------------------------------|---------------------------------|

   |---------------------------------|---------------------------------|
   |---------------------------------|---------------------------------|
   |-9-----------9---9-----------9-\-|-5-------5---5-------5---5-------|
   |---------------------------------|-----------------------------0---|

   |---------------------------------|---------------------------------|
   |---------------------------------|---------------------------------|
   |-2-------2-------5-------5-------|-0-------0---------------7-------|
   |-----2-------X-------5-------X---|-----0-----------0---7-------0---|

   |---------------------------------|---------------------------------|
   |---------------------------------|---------------------------------|
   |-2-------2-------5-------5-------|-0-------0---------------7-------|
   |-----2-------X-------5-------X---|-----0-----------0---7-------0---|

   |---------------------------------|---------------------------------|
   |---------------------------------|---------------------------------|
   |-2-------2-------5-------5-------|-0-------0---------------7-------|
   |-----2-------X-------5-------X---|-----0-----------0---7-----------|


[verse]


prechorus :
   |---------------------------------|---------------------------------|
   |-7---7-7-7---7-7---7-7---9---10--|---------------------10--9-------|
   |---------------------------------|-8---8-8-8---8-8---8---------10--|
   |---------------------------------|---------------------------------|

   |---------------------------------|---------------------------------|
   |-7---7-7-7---7-7---7-7---9---10--|---------------------------------|
   |---------------------------------|-8---8-8-7---7-5---5-------------|
   |---------------------------------|---------------------8---7---5---|

   |---------------------------------|---------------------------------|
   |-7---7-7-7---7-7---7-7---9---10--|---------------------10--9-------|
   |---------------------------------|-8---8-8-8---8-8---8---------10--|
   |---------------------------------|---------------------------------|

   |---------------------------------|---------------------------------|
   |-7---7-7-7---7-7---7-7---9---10--|---------------------10--9-------|
   |---------------------------------|-8---8-8-8-----8-108---------10--|
   |---------------------------------|---------------------------------|


chorus :
   |---------------------------------|---------------------------------|
   |-7---7-7-7---7-7---7-7---9---10--|-------------------101010109-7---|
   |---------------------------------|-8---8-8-8---8-8---------------10|
   |---------------------------------|---------------------------------|

   |---------------------------------|---------------------------------|
   |-7---7-7-7---7-7---7-7---9---10--|---------------------------------|
   |---------------------------------|-8---8-8-8---8/20¤-202020202020--|
   |---------------------------------|---------------------------------|

   |---------------------------------|---------------------------------|
   |---------------------------------|---------------------------------|
   |-3-------3-----------------------|-5-------5-----------------------|
   |-----------------3-------3-------|-----------------5-------5-------|

   |---------------------------------|-----------------7---------7-7-X-|
   |---------------------------------|---------------7-----7-----------|
   |-3-------3-----------2---3---5---|-----5---5-------------0-5-------|
   |-----------------3---------------|---------------------------------|

   |---------------------------------|---------------------------------|
   |---------------------------------|---------------------------------|
   |-3-------3-----------------------|-5-------5-----------------------|
   |-----------------3-------3-------|-----------------5-------5-------|

   |---------------------------------|---------------------------------|
   |---------------------------------|---------------------------------|
   |-3-------3-----------2---3---5---|---------------------------------|
   |-------------0-0-3---------------|---------------------------------|



( Easily )


Tempo ? ()
intro :
   (bass fig.1)
   |-------------------------------7-|---------------------------------|
   |-7-----------5-------------7-10--|--------------------------5h75---|
   |-----------7---5-----------------|---------------7---------7-----7-|
   |---------------------------------|-8-8-------10--------------------|


verse :
   [bass fig.1]  (4 fois)


chorus :
   (bass fig.2)
   |-----9-----------------------9-10|-----9-----------------------9-10|
   |-10----10--10----10--9-9-9-10----|-10----10--10----10--9-9-9-10----|
   |---------------10----------------|---------------10----------------|
   |---------------------------------|---------------------------------|

   |-----5-----------------------5-7-|-----5-----------------------5-7-|
   |-7-----7---7-----7---5-5-5-7-----|-7-----7---7-----7---5-5-5-7-----|
   |---------------7-----------------|---------------7-----------------|
   |---------------------------------|---------------------------------|


[verse]

[chorus]  (2 fois)


guitar solo :
   [bass fig.1]  (2 fois)


[verse]

[chorus]  (2 fois)


outro :
   [bass fig.2]  (4 fois)



( Porcelain )


Tempo Slowly ()
verse :
   (bass fig.1)
   |-------------6-------------------|-------------6-------------------|
   |-----------------7---4-----------|-----------------7---4-----------|
   |-5-------------------------------|---------------------------------|
   |-------------------------5-------|-0-5---------------------2-------| (4 fois)


chorus :
   |---------------------------------|---------------------------------|
   |---------------------------------|---------------------------------|
   |---------9-----------------------|---------------------------------|
   |-7---------------5---------------|-7---------------5---------------|

   |---------------------------------|-------------------------9-------|
   |---------------------------------|---------6-------9---------------|
   |---------9-----------------------|-7-------------------------------|
   |-7---------------5---------------|---------------------------------|


[verse]

[chorus]


outro :
   |---------------------------------|---------------------------------|
   |---------------------------------|---------------------------------|
   |---------9-----------------------|---------------------------------|
   |-7---------------5---------------|-7-------7h9p7---5---------------|

   |---------------------------------|-------------------------9h11p9--|
   |---------------------------------|---------6-----6-9---------------|
   |---------9-----------------------|-7-------------------------------|
   |-7---------------5---------------|---------------------------------|

   |---------------------------------|
   |-0-------------------------------|
   |---------------------------------|
   |---------------------------------|


bass fig.1 variations :
   |-------------6-------------------|
   |-----------------7---4-----------|
   |-7-----------5-------------------|
   |-------------------------2-------|

   |-------------6-------------------|
   |-----------------7---4-----------|
   |-----5-7-5-----------------------|
   |-5-7---------------------5-------|



( Emit Remmus )


Tempo ? ()
intro :
   |---------------------------------|---------------------------------|
   |-------------6p5h6p5h6-----------|-------------6p5h6p5h6-----------|
   |-6---8---8-----------------------|-6---8---8-----------------------|
   |---------------------------------|-------------------------6-------| (4 fois)


verse :
   |---------------------------------|---------------------------------|
   |---------------------------------|---------------------------------|
   |-6---8---8---11p10h11p10h11------|-6---8---8---11p10h11p10h11--1---|
   |---------------------------------|---------------------------------|



chorus :
   |---------------------------------|---------------------------------|
   |---------------------------------|---------------------------------|
   |-6---8-8-8---11----11------------|-6---8-8-8---11----11--------1---|
   |---------------------------------|---------------------------------|





[verse]

[chorus]


interlude :
   |---------------------------------|---------------------------------|
   |---------------------------------|---------------------------------|
   |-3-3-3---3-3---------------------|-1-1-1---1-1---------------------|
   |-----------------4-4-4---4-4-----|-----------------1-1-1---1-1-----|

   |---------------------------------|---------------------------------|
   |---------------------------------|---------------------------------|
   |-3-3---5-5-6-6-3---------6-5-3---|-1-1-1---1-----------------------|
   |-------------------4-------------|-----------------1-1-1---1-1-----|

   |---------------------------------|---------------------------------|
   |---------------------------------|---------------------------------|
   |-3-----5-6-8-6-5---------6-5-3---|-1---1-1-------------------------|
   |-------------------4-4-----------|-----------------1-1-1---1-------|

   |---------------------------------|---------------------------------|
   |---------------------------------|---------------------------------|
   |-3-3---5-5-6-6-3-----------------|-1-1-1-1---1---------------------|
   |-----------------4-4-4---4-4-----|-----------------1-1-1---1-1-----|







[verse]

[chorus]  (8 fois)


outro :
   |---------------------------------|
   |---------------------------------|
   |-6---8-8-8-------11-11---15\-----|
   |---------------------------------|



( I Like Dirt )


Tempo ? ()
intro :
   |---------|
   |---------|
   |---------|
   |--5--7---|


main riff :
   |---------------------|-------------------------|
   |-----9-------9-X-7-9-|-----9-------9-X-7-8-9---|
   |---------------------|-------------------------|
   |-5-7---X—5/7---------|-5-7---X-5-7-------------|


chorus :
   |-----------------|
   |-----------------|
   |-5-------5-------|
   |---7-7-X---7-7---|


interlude :
   |----------|-------------------|
   |----------|-10----8---6---8---|
   |----------|----10---8---6---8-|
   |-8---8-8--|-------------------|


guitar solo :
   |------|
   |------|
   |-5-7--|
   |------|


variations :
   |-------------------||-----------||-------------|
   |-9-7---------------||-7---------||-9-9---------|
   |-----9-7-9-5h7-----||---9-7-5h7-||-----7-7-----|
   |---------------7---||-----------||---------9-9-|

   |-----------------|
   |-9-7-------------|
   |-----9-7-5-7-----|
   |-------------7-5-|


###########################################################


intro :
   |--------------------------|
   |--------------------------|
   |--------------------------|
   |--5-7---5-7---5-7---5-7---|


verse :
   |-----------------------------------------|
   |------9------9-x7-8-----9------9-x7-8-9--|
   |-----------------------------------------|
   |--5/7---x5/7--------5/7---x5/7-----------| (8 fois)


bridge :
   |-----------------------------|
   |-----------------------------|
   |--5------5------5-----5------|
   |----7-7----7-7----7-7---7-7--| (2 fois)


verse :
   |-----------------------------------------|
   |------9------9-x7-8-----9------9-x7-8-9--|
   |-----------------------------------------|
   |--5/7---x5/7--------5/7---x5/7-----------| (6 fois)


interlude :
   |-----------------------------------------|
   |------------------------13---10---8--6---|
   |--------------------------13---10--8--6--|
   |--8----8-8-------8----8------------------|


verse :
   |-----------------------------------------|
   |------9------9-x7-8-----9------9-x7-8-9--|
   |-----------------------------------------|
   |--5/7---x5/7--------5/7---x5/7-----------| (2 fois)


[bridge]


solo :
   |--------------------------|
   |--------------------------|
   |--5-7---5-7---5-7---5-7---|
   |--------------------------|

   |-----------------------------------------|
   |------9------9-x7-8-----9------9-x7-8-9--|
   |-----------------------------------------|
   |--5/7---x5/7--------5/7---x5/7-----------| (2 fois)


verse :
   |-----------------------------------------|
   |------9------9-x7-8-----9------9-x7-8-9--|
   |-----------------------------------------|
   |--5/7---x5/7--------5/7---x5/7-----------| (2 fois)


outro :
   [bridge]


variations :
   |-----------------------|
   |--9--7-----------------|
   |--------9--7--5--------|
   |-----------------7--5--|



( This Velvet Glove )


Tempo Moderately (116)
intro :
   |----12-10----10-12---9-10-9-9---|
   |-12-------10-------8------------|
   |--------------------------------|
   |--------------------------------|

   |-------------------------------------|---------------12-10--------------------|
   |-12--12-12--10-10-10--8--8-8--8-8-8--|-12--12-12--10-------8--8-8-8--8-8-8-8--|
   |-------------------------------------|----------------------------------------|
   |-------------------------------------|----------------------------------------|


verse :
   |----12-10----10-12---9-10-9-9--|----12-10----10-12---9-10-9--|
   |-12-------10-------8-----------|-12-------10-------8---------|
   |-------------------------------|-----------------------------|
   |-------------------------------|-----------------------------|


bridge :
   |---------------------------------------|
   |-12--12-12--10-10-10--8--8-8-8--8-8-8--|
   |---------------------------------------|
   |---------------------------------------|

   |---------------12-10-------------------|----12-10----10-12---9-9-10-10-9-9--|
   |-12--12-12--10--------8--8-8-8--8-8-8--|-12-------10-------8----------------|
   |---------------------------------------|------------------------------------|
   |---------------------------------------|------------------------------------|


[verse]


chorus :
     P T  T  T P T  T  T P T  T T  P T  T T  TP T  T  T P T  T T
   |-7---------7------------------------------7---------7--------|
   |---------------------7---------7-----------------------------|
   |---5--5--x---5--5------------------------x--5--5--x---5--5---|
   |-------------------x---5--5-5----5--5-x--------------------x-|

     P T  T T  P T  T T   P T  T  T P T  T  T P T  T T  P T  T T
   |----------------------7---------7----------------------------|
   |-7---------7------------------------------7---------7--------|
   |------------------------5--5--x---5--5-----------------------|
   |---5--5-5----5--5-x---------------------x---5--5-5----5--5-x-|

     P  T  T  T P T  T  T P T  T  T  T    T  T
   |-5----------5---------5---------------------|
   |------------5---------5---------------------|
   |----3--3--3---3--3--3---3--x----------------|
   |------------------------------5--5----5--5--|


bridge :
   [intro]


[verse]


interlude :
   |----------------------------------------------------------------|
   |-7-7--x7-7-7--x7-7-7--x7-7-7--x7-7-7--x7-7-7--x7-7-7--x7--7--7--|
   |----------------------------------------------------------------|
   |----------------------------------------------------------------|


[chorus]

[bridge]

[verse]



( Savior )


Tempo ? ()
verse :
   |---------------------------|
   |---------------------------|
   |-5--5--5--5--5--7--8-------|
   |----------------------8--3-| (2 fois)


prechorus :
   |---13-------------11-13----|
   |------16-14----------------|
   |------------14-------------|
   |-0--------------0--------0-|


chorus :
   |----19-------19-------19----19----19----19-|
   |-------------------------------------------|
   |-17----17-15----15-------------------------|
   |-------------------15----15----15----15----| (1 fois)

   |----19-------19-------19----19----19----19-|
   |-------------------------------------------|
   |-17----17-15----15-------------------------|
   |-------------------15----15----18----18----| (2 fois)



( Purple Stain )


Tempo ? ()
verse :
   |---------------------------------|---------------------------------|
   |-----14\-------------------------|-----14\-------------------------|
   |---------------------------------|---------------------------------|
   |-0------X12\---0-0-¤----X12\-0-3-|-0------X12\---0-0-¤----X12-0-2-3|

   |---------------------------------|---------------------------------|
   |-----14\-------------------------|-----14\-------------------------|
   |----------------------10\~7\~5\3~|---------------------------------|
   |-0------X12\---0-0---------------|-0------X12\---0-0-¤----X12\-0-3-|


prechorus :
   |---------------------------------|
   |--57-7-¤--57-7-¤--57-7-¤--57-7-¤-|
   |-7-------7-------7-------7-------|
   |---------------------------------|


chorus :
   |-------------------------5-¤-----|-------------------------75¤-----|
   |--57-7-¤--57-7-¤--57-7-¤----75---|--57-7-¤--57-7-¤--57-7-¤----75---|
   |-7-------7-------7---------------|-7-------7-------7---------------|
   |---------------------------------|---------------------------------|


[verse]

[chorus]  (2 fois)


bridge :
   |---------------------------------|
   |-------0-2---2---------0-2---2---|
   |----0h2-------------0h2----------|
   |-3-3-------0-----3-3-------0-----| (4 fois)


|---------------|
|-----14\-------|
|---------------|
|-0------X12\---|

[verse]

[prechorus]

[chorus]  (2 fois)

[bridge]


outro :
   |---------------------------------| 
   |---14----14----14----14--12------|
   |-----------------------/14---14--|
   |-12----12----12----12------------|  (38 fois)...



( Right On Time )


Tempo ? ()
verse :
     T T T T  P T  P T   T T T T  P T  P T
   |-------------------|-------------------|
   |----------6----6---|----------6----6---|
   |-7-9-7-4----4----4-|-7-9-7-4----4----4-|
   |-------------------|-------------------|


chorus & outro :
   |---6-6---6-6---9-9---9-9---4-4---4-4---11-11---11-11-|
   |-----------------------------------------------------|
   |-4-----4-----7-----7-----2-----2-----9-------9-------|
   |-----------------------------------------------------|


chorus : (variation)
   |---11-11---11-11----14-14----14-14---9-9---9-9----16-16----16-16-----|
   |---------------------------------------------------------------------|
   |-9-------9-------12-------12-------7-----7-----14-------14-----------|
   |---------------------------------------------------------------------|


outro :
   |---------------------------------------------------------------------|
   |---------------------------------------------------------------------|
   |-7-9-7-4\------------------------------------------------------------|
   |---------------------------------------------------------------------|


####################################################################


verse :
   |-----------------|
   |-----------------|
   |---9-7-----------|
   |-0-----9--x9-x9--| (8 fois)


chorus :
   |---------------------9-9----9-9------------------11-11----11-11--|
   |----11-11---11-11------------------9-9----9-9--------------------|
   |------------------7-7----7-7------------------9-9------9-9-------|
   |-9-9-----9-9--------------------7-7----7-7-----------------------| (4 fois)


[verse]


chorus :
   |---------------------9-9----9-9------------------11-11----11-11--|
   |----11-11---11-11------------------9-9----9-9--------------------|
   |------------------7-7----7-7------------------9-9------9-9-------|
   |-9-9-----9-9--------------------7-7----7-7-----------------------| (4 fois)

   |----11-11----11-11------14-14------14-14------9-9----9-9------16-16--|
   |---------------------------------------------------------------------|
   |-9-9------9-9------12-12------12-12-------7-7-----7-7----14-14-------|
   |---------------------------------------------------------------------|


[verse]


chorus :
   |---------------------9-9----9-9------------------11-11----11-11--|
   |----11-11---11-11------------------9-9----9-9--------------------|
   |------------------7-7----7-7------------------9-9------9-9-------|
   |-9-9-----9-9--------------------7-7----7-7-----------------------| (4 fois)


outro :
   |------------|
   |------------|
   |---9-7------|
   |-0------9\--|



( Road Trippin' )


Tempo ? ()
intro:
   |-------------|
   |-2-----------|
   |-------------|
   |-------------|

   (bass fig.1)
   |---------------------------------|---------------------------------|
   |-2---5-----4-----2---------------|-------------5---4---2-----------|
   |---------------------3-----------|-3---2---------------------------|
   |---------------------------------|---------------------------------|

   |---------------------------------|---------------------------------|
   |-2---5-----4-----2---------------|---------------------------------|
   |---------------------3-----------|-3---2---------------------------|
   |---------------------------------|-------------3---2---0-----------|


verse :
   [bass fig.1]  (2 fois)

   |---------------------------------|---------------------------------|
   |-2---5-----4-----2---------------|-------------5---4---2-----------|
   |---------------------3-----------|-3---2---------------------------|
   |---------------------------------|---------------------------------|

   [bass fig.1]  (2 fois)


chorus :
   |---------------------------------|---------------------------------|
   |-7----7----7-----9----9----9-----|-10---10---10----12---12---12----|
   |---------------------------------|---------------------------------|
   |---------------------------------|---------------------------------| (2 fois)


verse :
   [bass fig.1]  (3 fois)


chorus :
   |---------------------------------|---------------------------------|
   |-7----7----7-----9----9----9-----|-10---10---10----12---12---12----|
   |---------------------------------|---------------------------------|
   |---------------------------------|---------------------------------| (2 fois)


interlude :
   |---------------------------------|---------------------------------|
   |---------------------------------|---------------------------------|
   |-7-------0-------3-------5-------|-7-------0-------3-------5-------|
   |---------------------------------|---------------------------------|

   |---------------------------------|---------------------------------|
   |---------------------------------|---------------------------------|
   |-7-------0-------3-------5-------|-7-------0-------3-------9-------|
   |---------------------------------|---------------------------------|


verse :
   [bass fig.1]  (2 fois)

   |---------------------------------|---------------------------------|
   |-2---5-----4-----2---------------|-------------5---4---2-----------|
   |---------------------3-----------|-3---2---------------------------|
   |---------------------------------|---------------------------------|

   [bass fig.1]  (2 fois)


chorus :
   |---------------------------------|---------------------------------|
   |-7----7----7-----9----9----9-----|-10---10---10----12---12---12----|
   |---------------------------------|---------------------------------|
   |---------------------------------|---------------------------------| (4 fois)


outro :
   |---------------------------------|
   |---------------------------------|
   |-7-------------------------------|
   |---------------------------------|


(   )

E-Stat

( Pochette | Paroles | << Préc | Suiv >>
_

[Sommaire] | [Peppers] | [Discographie] | [Paroles] | [Tablatures] | [News!]
[Images] | [Articles] | [Concerts] | [Bonus] | [Liens] | [A Propos]