BloodSugarSexMagik Hand

( Tablatures de Basse )
_

Tablatures
de l'album
Blood Sugar Sex Magik

( Pochette | Paroles | << Préc | Suiv >>
_



( The Power Of Equality )


Tempo Moderate Funk (104)
(tune down 1/2 step: Gb Db Ab Eb)
intro :                                                  T   T   T   T
   |---------------------------------|-------------------0-------------|
   |-----------(spoken)--------------|-----------------------4---3-\---|
   |----------(3-mesures)------------|---------------------------------|
   |---------------------------------|-------------------------------0-|


verse :
   (bass fig.1)
     T     T   T T T                   T     T   T T T   T T   T   T    
   |---------------------------------|---------------------0-----------|
   |-------2-----1-2-----------------|-------2-----1-2---------4---3---|
   |-0/2-----------------------------|-0/2-----------------------------|
   |-----------0---------------------|-----------0-------0-------------|

     T     T   T T T   T T   T   T     T     T   T T T   T   T   T   T  
   |---------------------------------|-------------------0-------------|
   |-------2-----0-2-----1---3---0---|-------2-----0-2-¤-----4---3-----|
   |-0/2-----------------------------|-0/2-----------------------------|
   |-----------0-------0-------------|-----------0-------------------0-| (2 3/4 fois)


prechorus :
     T   T   T   T   T   T   T   T    
   |---------------------------------|
   |---------------------------------|
   |-6---6---6---6---6---6---6---6---|
   |---------------------------------|


chorus :
     T   T T T P T P T P T T T   T     T           P P T   T   T   T    
   |-----------7---7--10-------------|-------------X-X-----------------|
   |---------------------------------|---------------------------------|
   |-4/5-5-5-5---5--/8---8-----------|-----------------3---3---4---4---|
   |-----------------------0-5---4---|-3---¤---------------------------|

     T   T T T P T P T P T T T   T     T           P P T       T        
   |-----------7---7--10-------------|-------------X-X-----------------|
   |---------------------------------|---------------------------------|
   |-4/5-5-5-5---5--/8---8-----------|-----------------3---¤---4---¤---|
   |-----------------------0-5---4---|-3---¤---------------------------|

     T   T T T P T P T P T T T   T     T           P P T   T   T   T    
   |-----------7---7--10-------------|-------------X-X-----------------|
   |---------------------------------|---------------------------------|
   |-4/5-5-5-5---5--/8---8-----------|-----------------3---3---4---4---|
   |-----------------------0-5---4---|-3---¤---------------------------|

     T   T T T P T P T P T T T   T     T                   T            
   |-----------7---7--10-------------|---------------------------------|
   |---------------------------------|---------------------------------|
   |-4/5-5-5-5---5--/8---8-----------|---------------------------------|
   |-----------------------0-5---4---|-3---¤---------------3-/-15-\----|


[bass fig.1]

[verse]

[prechorus]

[chorus]


interlude 1 :
     T   T P   P T P   P T P   P T     T   T P   P T P   P T P   P T    
   |-------8-¤-X---6-¤-X-1-8-¤-------|-------8-¤-X---5-¤-X-1-8-¤-------|
   |-1---1-------4-------------X-----|-1---1-------4-------------X-----|
   |-----------------------------4---|-----------------------------4---|
   |---------------------------------|---------------------------------| (4 fois)


[verse]

[prechorus]

[chorus]


interlude 2 :
     T     T   T T T                   T     T   T T T   T T   T   T    
   |---------------------------------|---------------------0-----------|
   |-------2-----1-2-----------------|-------2-----1-2---------4---3---|
   |-0/2-----------------------------|-0/2-----------------------------|
   |-----------0---------------------|-----------0-------0-------------|

     T     T   T T T   T T   T   T     T     T   T T T                  
   |---------------------------------|---------------------------------|
   |-------2-----0-2-----1---3---0---|---------------------------------|
   |-0/2-----------------------------|-------7-----5-7-¤---------------|
   |-----------0-------0-------------|-5/7-------0---------------------|


verse :
   [bass fig.1]  (3 fois)


outro :
     T   T P T P TP  T P T P T   T P   T   T P T P TP  T P T P T   T P  
   |-------9---9-------9---9-------9-|-------9---9-------9---9-------9-|
   |-------------7/9---------5/7-7---|-7/9---------7/9---------5/7-7---|
   |-5/7-7---7-------7---7-----------|-----7---7-------7---7-----------|
   |-------------0-------------------|-------------0-------------------|

     T   T P T P T   T P T P T   T P   T   T P T P T   T P T P T   T P  
   |-------9---9-------9---9-------9-|-------9---9-------9---9-------9-|
   |-------------------------5/7-7---|-------------------------5/7-9---|
   |-5/7-7---X---5/7-7---7-----------|-5/7-7---X---5/7-7---7-----------|
   |---------------------------------|---------------------------------|

     T   T P T P T   T P T P T   T P   T   T P T P T   T P T P T   T P  
   |-------9---9-------9---9-------9-|-------9---9-------9---9-------9-|
   |-------------------------5/7-7---|-------------------------5/7-----|
   |-5/7-7---X---5/7-7---7-----------|-5/7-7---X---5/7-7---7-----------|
   |---------------------------------|-----------------------------7---|

     T   T P T P T   T P T P T   T P   T   T P T P T   T P T P T   T P
   |-------9---9-------9---9-------9-|-------9---9-------9---9-------9-|
   |-------------------------5/7-7---|-------------------------5/7-9---|
   |-5/7-7---X---5/7-7---7-----------|-5/7-7---X---5/7-7---7-----------|
   |---------------------------------|---------------------------------|

     T   T P T P T   T P T P T   T P   T   T P T P T     T   T   T
   |-------9---9-------9---9-------9-|-------9---9---------------------|
   |-------------------------5/7-7---|---------------------------------|
   |-5/7-7---X---5/7-7---7-----------|-5/7-7---X---5/7-¤-10--9---8-\---|
   |---------------------------------|---------------------------------|



( If You Have To Ask )


Tempo Moderate Funk (98)
(drop D tuning: G D A D)
intro :
   [guitare]  (4 mesures)


verse :
   (bass fig.1)
   |---------------------------------|---------------------------------|
   |---------------------------------|---------------------------------|
   |--------5-3-0-----------5-3-0----|--------5-3-0--------------------|
   |-0------------5---------------3--|-0------------5------5-/-17-\----|

   |---------------------------------|---------------------------------|
   |---------------------------------|---------------------------------|
   |--------5-3-0-----------5-3-0----|--------5-3-0----2---3-----------|
   |-0------------5---------------3--|-0------------5----------5-------|

   |---------------------------------|---------------------------------|
   |---------------------------------|---------------------------------|
   |--------5-3-0-----------5-3-0----|--------5-3-0--------------------|
   |-0------------5---------------3--|-0------------5------5-/-17-\----|

   |---------------------------------|---------------------------------|
   |---------------------------------|---------------------------------|
   |--------5-3-0-----------5-3-0----|--------5-3-0------2---3---4---5-|
   |-0------------5---------------3--|-0------------5--¤---------------| (2 fois)


chorus 1 :
   |-------2/3-----------------------|-------2/3-----------3---5-------|
   |-------------1---X-3/4---1-------|-------------1---4-5---3---------|
   |-3---¤-----3-----------3---3-1---|-3---¤-----3---3-----------6-\---|
   |---------------------------------|---------------------------------|

   |-------2/3-----------------------|-------2/3-----------------------|
   |-------------1---X-3/4---1-------|-------------1-------------------|
   |-3---¤-----3-----------3---3-1---|-3---¤-----3---------------------|
   |---------------------------------|---------------0-1---3---4---5---|

   |-------2/3-----------------------|-------2/3-X-8-9-¤-X-2-3-¤-------|
   |-------------1---X-3/4---1-------|---------------------------X-1---|
   |-3---¤-----3-----------3---3-1---|-3---¤---------------------------|
   |---------------------------------|---------------------------------|

   |-------2/3-----------------------|---------------------------------|
   |-------------1---X-3/4---1-------|---------------------------------|
   |-3---¤-----3-----------3---3-1---|-3---¤-------1---¤---------------|
   |---------------------------------|---------------------------------|


interlude 1 :
   [bass fig.1]  (4 mesures)


[verse]


chorus 2 :
   |-------2/3-----------------------|-----X-2/3-----------------------|
   |-------------1---X-3/4---1-------|-------------1---3---4---5-0-----|
   |-3---¤-----3-----------3---3-1---|-3---------3---X-------------1---|
   |---------------------------------|---------------------------------|

   |-------2/3-----------------------|-------2/3---------2-------------|
   |-------------1---X-3/4---1-------|-----X-------1-------1---¤-------|
   |-3---¤-----3-----------3---3-1---|-3---------3---0-1---------------|
   |---------------------------------|---------------------------3-----|

   |-------2/3-----------------------|-------2/3----10-8---9---10-\----|
   |-------------1---X-3/4---1-------|-----X-------1-------------------|
   |-3---¤-----3-----------3---3-1---|-3---------3---------------------|
   |---------------------------------|---------------------------------|

   |-------2/3-----------------------|---------------------------------|
   |-------------1---X-3/4---1-------|---------1-----------------------|
   |-3---¤-----3-----------3---3-1---|-3---¤-------1---¤---------------|
   |---------------------------------|---------------------------------|


interlude 2 :
   |---------------------------------|---------------------------------|
   |-5---¤---4---¤---3---¤-----------|-1---¤---------------------------|
   |-------------------------3---¤---|---------1---¤---5-----------¤---|
   |---------------------------------|---------------------------------| (bis)

   |---------------------------------|---------------------------------|
   |-5---X-4-¤-X-3---X---------------|-1-------------------------------|
   |---------------------3---¤-3---X-|-----X-1-¤-X-5---X---------------|
   |---------------------------------|-------------------0-¤-0-¤-0-¤---|

   |---------------------------------|---------------------------------|
   |-5---X-4-¤-X-3---X---------------|-1-------------------------------|
   |---------------------3---¤-3---X-|-----X-1-¤-X-5---(5)--/--17--\---|
   |---------------------------------|---------------------------------|


guitar solo :
   [bass fig.1]  (2 fois)

   |---------------------------------|---------------------------------|
   |---------------------------------|---------------------------------|
   |---------------------------------|---------------------------------|
   |-0-------------------------------|-----------------------------¤---|


outro :
   [bass fig.1]  (6 mesures)

   |-------------------0-2---5---4-5-|-¤-------------------------------|
   |-----------------------3---X-----|---3-------3-¤-------------------|
   |--------5-3-0--------------------|-------3-5-----5-¤---3-----------|
   |-0------------5--¤---------------|-------------------5-----0-------|



( Breaking The Girl )


Tempo Moderately (90)
(tune down 1/2 step: Gb Db Ab Eb)
intro :
   (bass fig.1)
   |-------------------------|-------------------------|
   |-----7---7-----------7---|-----7---7-------7-5-----|
   |-------7---------7-9-----|-------7-------------7---|
   |-5-----------5-----------|-5-----------5-----------|

   |-------------------------|-------------------------|
   |-----7---7-----------5---|-----7---7-------7---7---|
   |-------7---7-----7-------|-------7-----------7-----|
   |-5-----------5-----------|-5-----------5-----------| (2 fois)


verse :
   [bass fig.1]  (4 fois)

   |-------------------------|
   |-----7---7-------7---7---|
   |-------7-----------7-----|
   |-5-----------5-----------|


prechorus :
   |-------------------------|-------------------------|
   |-------------2---3---5---|-------------------------|
   |-3-----3-3---------------|-------5-----5-------5---|
   |-------------------------|-3-------3-------3-------|

   |-------------------------|-------------------------|
   |-----7---7-----------5---|-7---7---7---7---5-------|
   |-------7---------5-7-----|---------------------7---|
   |-5-----------5-----------|-------------------------|

   |-------------------------|-------------------------|
   |-----------------2---5---|-------------------------|
   |-3-----3-3---3-----------|---------------------5---|
   |-------------------------|-3-----3-3---3---7-------|

   |-------------------------|-------------------------|
   |-------------------------|-3-------3---3-------3---|
   |-----------------0---3---|-------3---------3-5-----|
   |-1-------1---1-----------|-------------------------|


chorus :
   (bass fig.2)
   |-------------------|-------------------|-------------------|-------------------|
   |-------------------|-------------------|-------------------|-------------------|
   |-0--0--0--2--2--2--|-3--3--3--5--5--5--|-7--7--7--5--5--5--|-3--3--3--2--2--2--|
   |-------------------|-------------------|-------------------|-------------------|

   |-------------------|-------------------|------------/5--2--|----2--4--5--4--2--|
   |-------------------|-------------------|-3--3--3--3--------|-3-----------------|
   |-0--0--0--2--2--2--|-3--3--3--5--5--5--|-------------------|-------------------|
   |-------------------|-------------------|-------------------|-------------------|


   |-------------------|-------------------|-------------------|-------------------|
   |-------------------|-------------------|-------------------|-------------------|
   |-0--0--0--2--2--2--|-3--3--3--5--5--5--|-7--7--7--5--5--5--|-3--3--3--2--2--2--|
   |-------------------|-------------------|-------------------|-------------------|

   |-------------------|-------------------|-------------------|-------------------|
   |-------------------|-------------------|-3--3--3--3--3--3--|-3--3--3--2--2--2--|
   |-0--0--0--2--2--2--|-3--3--3--5--5--5--|-------------------|--------------2----|
   |-------------------|-------------------|-------------------|-------------------|


[verse]

[prechorus]


chorus :
   |-------------------|-------------------|-------------------|-------------------|
   |-------------------|-------------------|-------------------|-------------------|
   |-0--0--0--2--2--2--|-3--3--3--5--5--5--|-7--7--7--5--5--5--|-3--3--3--2--2--2--|
   |-------------------|-------------------|-------------------|-------------------|

   |-------------------|-------------------|-------------------|-------------------|
   |-------------------|-------------------|-3--3--3--3-/10-7-8|-9--10-12-10-9--7--|
   |-0--0--0--2--2--2--|-3--3--3--5--5--5--|-------------------|-------------------|
   |-------------------|-------------------|-------------------|-------------------|

   |-------------------|-------------------|-------------------|-------------------|
   |-------------------|-------------------|-------------------|-------------------|
   |-0--0--0--2--2--2--|-3--3--3--5--5--5--|-7--7--7--5--5--5--|-3--3--3--2--2--2--|
   |-------------------|-------------------|-------------------|-------------------|

   |-------------------|-------------------|-------------------|-------------------|
   |-------------------|-------------------|-3--3--3--3--3--3--|-3--3--3--2--2--2--|
   |-0--0--0--2--2--2--|-3--3--3--5--5--5--|-------------------|--------------2----|
   |-------------------|-------------------|-------------------|-------------------|


interlude :
   |-------------------------|-------------------------|
   |-----7---7-------7---7---|-----7---7---------------|
   |-------7-----------7-----|-------7-----3---3---3---|
   |-5-----------5-----------|-5-----------------------| (8 fois)


chorus :
   |-------------------|-------------------|-------------------|-------------------|
   |-------------------|-------------------|-------------------|-------------------|
   |-0--0--0--2--2--2--|-3--3--3--5--5--5--|-7--7--7--5--5--5--|-3--3--3--2--2--2--|
   |-------------------|-------------------|-------------------|-------------------|

   |-------------------|-------------------|-------------------|-------------------|
   |-------------------|-------------------|-3--3--3--3-/10-7-9|-10/12-10-9--10-7--|
   |-0--0--0--2--2--2--|-3--3--3--5--5--5--|-------------------|-------------------|
   |-------------------|-------------------|-------------------|-------------------|

   |-------------------|-------------------|-------------------|-------------------|
   |-------------------|-------------------|-------------------|-------------------|
   |-0--0--0--2--2--2--|-3--3--3--5--5--5--|-7--7--7--5--5--5--|-3--3--3--2--2--2--|
   |-------------------|-------------------|-------------------|-------------------|

   |-------------------|-------------------|
   |-------------------|-------------------|
   |-0--0--0--2--2--2--|-3--3--3--5--5--5--|
   |-------------------|-------------------|

   |-------------------------|--------------------------|
   |-3---3---3---3-/-7---7-9-|/10--9-7-9-7---7-9-10-9-7-|
   |-------------------8-----|-------------7------------|
   |-------------------------|--------------------------|


outro :
   |-------------------|-------------------|-------------------|----------7--7--7--|
   |-------------------|-------------------|----------7--7--7/9|-9--9--9-----------|
   |-0--0--0--2--2--2--|-3--3--3--5--5--5--|-7--7--7-----------|-------------------|
   |-------------------|-------------------|-------------------|-------------------|

   |/14-14-14-12-12-12-|\9--9--9--7--7--7--|-10-------10-------|10--9--7-57--5-----|
   |-------------------|-------------------|-------------------|----------------7--|
   |-------------------|-------------------|-------------------|-------------------|
   |-------------------|-------------------|-------------------|-------------------|

   [bass fig.2]  (2 fois)



( Funky Monks )


Tempo Moderate Funk (88)
(5-string bass tuning: G D A E B)
intro :
   [guitare]  (4 mesures)

   (bass fig.1)
   |---------------------------------|
   |---------------------------------|
   |---------------------------------|
   |-3---¤-------3---¤---3---X-3-----|
   |---------------------------------| (4 fois)


verse :
   [bass fig.1]  (6 fois)

   |---------------------------------|---------------------------------|
   |---------------------------------|---------------------------------|
   |---------------------------------|---------------------------------|
   |-3---¤-------3---¤---3---X-3-----|-3---¤-------3---¤-3-3-------1---|
   |---------------------------------|-------------------------1-3-----|

   [bass fig.1]  (6 fois)

   |---------------------------------|---------------------------------|
   |---------------------------------|---------------------------------|
   |---------------------------------|---------------------------------|
   |-3---¤-------3---¤---3---X-3---3-|-3---¤-3-1---1-------------------|
   |---------------------------------|-----------------3---2---1--/----|


chorus :
   |---------------------------------|---------------------------------|
   |---------------------------------|---------------------------------|
   |---------------------------------|---------------------------------|
   |-5---5---3---3---1---1---0---X-1-|---1-1-1-0---0-------------------|
   |---------------------------------|-----------------3---3---1-/-----|

   |---------------------------------|---------------------------------|
   |---------------------------------|---------------------------------|
   |---------------------------------|-----------------3---3---2---2---|
   |-5---5---3---3---1---1---0---X-1-|---1-1-1-0---0-------------------|
   |---------------------------------|---------------------------------|

   |---------------------------------|---------------------------------|
   |---------------------------------|---------------------------------|
   |---------------------------------|---------------------------------|
   |-5---5---3---3---1---1---0---X-1-|---1-1-1-0---0-------------------|
   |---------------------------------|-----------------3---3---1-/-----|

   |---------------------------------|---------------------------------|-----------------|
   |---------------------------------|---------------------------------|-----------------|
   |---------------------------------|---5-----3----56-----5-3-5-3-----|-----------------|
   |-5---5---3---3---1---1---0---¤---|-----------5-----------------5-3-|-5---¤-----------|
   |---------------------------------|---------------------------------|-----------------|


verse :
   [bass fig.1]  (2 fois)

   |---------------------------------|---------------------------------|
   |---------------------------------|---------------------------------|
   |---------------------------------|-----------------1---1---0---0---|
   |-3---¤-------3---¤---3---X-3-----|-3---¤-----3-¤-X-----------------|
   |---------------------------------|---------------------------------|

   [bass fig.1]  (2 fois)

   |---------------------------------|---------------------------------|
   |---------------------------------|---------------------------------|
   |---------------------------------|-----------------1---1---0---0---|
   |-3---¤-------3---¤---3---X-3-----|-3---¤-----3-¤-X-----------------|
   |---------------------------------|---------------------------------|

   [bass fig.1]  (2 fois)

   |---------------------------------|---------------------------------|
   |---------------------------------|---------------------------------|
   |---------------------------------|---------------------------------|
   |-3---¤-------3---¤---3---X-3-----|-3---¤-------3---¤-3-¤-3-1-3-1-3-|
   |---------------------------------|---------------------------------|

   [bass fig.1]  (2 fois)

   |---------------------------------|---------------------------------|
   |---------------------------------|---------------------------------|
   |---------------------------------|---------------------------------|
   |-3---¤-------3---¤---3---X-3---3-|-3---¤-3-1---1-------------------|
   |---------------------------------|-----------------3---2---1--/----|


[chorus]


guitar solo :
   (bass fig.2)
   |-------1-¤-0-2-----------2---1---|-------1-¤-0-2-------------------|
   |---------------------------------|---------------0-3---2---0-------|
   |-0-2-------------0---2-----------|-0-2-----------------------------|
   |---------------------------------|---------------------------------|
   |---------------------------------|---------------------------------|


   |-------1-¤-0-2-----------2---1---|-------1-¤-0-2-------------------|
   |---------------------------------|----------------2-3-2-0---3---2--|
   |-0-2-------------0---2-----------|-0-2-----------------------------|
   |---------------------------------|---------------------------------|
   |---------------------------------|---------------------------------|

   [bass fig.2]  (2 fois)

   |---------------------------------|---------------------------------|
   |---------------------------------|---------------------------------|
   |-------2-¤-1-3-----------3---2---|-------2-¤-1-3-------------------|
   |---------------------------------|---------------1-4---3---1-------|
   |-1-3-------------1---3-----------|-1-3-----------------------------|

   |---------------------------------|---------------------------------|
   |---------------------------------|---------------------------------|
   |-------2-¤-1-3-----------3---2---|-------2-¤-1-3-------------------|
   |---------------------------------|---------------1-4---3---1---3---|
   |-1-3-------------1---3-----------|-1-3-----------------------------|

   |---------------------------------|---------------------------------|
   |---------------------------------|---------------------------------|
   |-------2-¤-1-3-----------3---2---|-------2-¤-1-3-0-5-3-------3-----|
   |---------------------------------|---------------------5-4-3-------|
   |-1-3-------------1---3-----------|-1-3-----------------------------|

   |---------------------------------|---------------------------------|
   |---------------------------------|---------------------------------|
   |-------2-¤-1-3-----------3---2---|-------2-¤-1-3-------------------|
   |---------------------------------|---------------1-4---3---1-------|
   |-1-3-------------1---3-----------|-1-3-----------------------------|


verse :
   [bass fig.1]  (6 fois)

   |---------------------------------|---------------------------------|
   |---------------------------------|---------------------------------|
   |---------------------------------|-------------------3/4\3-3/5\3---|
   |-3---¤-------3---¤---3---X-3-----|-3---¤-------3---¤---------------|
   |---------------------------------|---------------------------------|

   [bass fig.1]  (6 fois)

   |---------------------------------|---------------------------------|
   |---------------------------------|---------------------------------|
   |---------------------------------|---------------------------------|
   |-3---¤-------3---¤---3---X-3---3-|-3---¤-3-1---1-------------------|
   |---------------------------------|-----------------3---2---1--/----|


[chorus]


outro :
   (bass fig.3)
   |-1-2-------------------X-4-¤-2---|-1-¤-2-------------------4-¤-2---|
   |-----0-2---3---4-----------------|-------2---3---4-----------------|
   |-------------------2-------------|-------------------0-2-----------|
   |---------------------------------|---------------------------------|
   |---------------------------------|---------------------------------|

   |-1-2-------------------X-4-¤-2---|-1-¤-2-------------------4-¤-2---|
   |-----0-2---3---4-----------------|-------2---3---4-----------------|
   |-------------------2-------------|-------------------0-2-----------|
   |---------------------------------|---------------------------------|
   |---------------------------------|---------------------------------|

   |-1-2---------------------4-¤-2---|-1-¤-2-------------------4-¤-2---|
   |-----0-2-0-3-0-4-----------------|---------2-3---4-----------------|
   |-----------------0-2-0-2---------|-------------------0-2-----------|
   |---------------------------------|---------------------------------|
   |---------------------------------|---------------------------------|

   |-1-2-------------------X-4-¤-2---|-1-¤-2-----------------X-4-¤-2---|
   |-----0-2---3---4-----------------|-------234-234-234---------------|
   |-------------------2-------------|-------------------2-------------|
   |---------------------------------|---------------------------------|
   |---------------------------------|---------------------------------|


   |-1-2-------------------X-4-¤-X-7-|-8-¤-4-------2-----4-0-2-1-¤-2---|
   |-----0-2---3---4-----------------|---------3-4---------------------|
   |-------------------2-------------|---------------0-2---------------|
   |---------------------------------|---------------------------------|
   |---------------------------------|---------------------------------|

   |-1-2-------------------X-4-¤-2---|-1---2-------------------4-¤-2-¤-|
   |-----0-234-234-234---------------|-------2---3---4-----------------|
   |-------------------2-------------|-------------------0-2-----------|
   |---------------------------------|---------------------------------|
   |---------------------------------|---------------------------------|

   |---1-----2-¤-----------2---X-2-¤-|---2-----4-¤---------------------|
   |---------------------------------|---------------------------------|
   |---------------------------------|---------------------------------|
   |---------------------------------|---------------------------------|
   |---------------------------------|---------------------------------|

   |---1-----2-¤-----------2---X-2-0-|---7-----4-¤---------------------|
   |---------------------------------|---------------------------------|
   |---------------------------------|---------------------------------|
   |---------------------------------|-------------------------4/11\-¤-|
   |---------------------------------|---------------------------------|

fade out :
   [bass fig.3]



( Suck My Kiss )


Tempo Moderately (102)
intro :
   (bass fig.1)
   |---------------------------------|---------------------------------|
   |---------------------------------|---------------------------------|
   |-------------1-------------------|-------------1-------------------|
   |-1---3---¤---------1-----3---¤---|-1---3---¤---------1-----3---¤---|

   |---------------------------------|-------------------------7/9-9---|
   |---------------------------------|---------3-3-3-3-5/7-7-7---------|
   |-------------1-------------------|-3/5-5-5-------------------------|
   |-1---3---¤---------1-----3---¤---|---------------------------------| (2 fois)


   (bass fig.2)
   |---------------------------------|---------------------------------|
   |---------------------------------|---------------------------------|
   |---------------------------------|-------------------------131-----|
   |-1---3---¤-3---1-----3---¤-3-¤---|-1---3---¤-3---1---3-¤-3-----1---| (2 fois)


verse :
   [bass fig.2]  (2 fois)

   (bass fig.3)
   |---------------------------------|---------------------------------|
   |---------3-----------------------|-3-------3-------4-------4-/-----|
   |-----------------------------3---|-------------4-------------------|
   |-1-------------------------------|---------------------------------|

   [bass fig.2]  (2 fois)

   [bass fig.3]

   |---------------------------------|---------------------------------|
   |---------------------------------|---------------------------------|
   |---------------------------------|-------------1-------------------|
   |-1---3---¤-3---1-----3---¤-3-¤---|-1---3---¤-----------------------|


chorus :
   |---------------------------------|---------------------------------|
   |-----------------5-----5---------|---------------------------------|
   |-------------------5-------5-----|-0---0---¤-----------------------|
   |-0---0---¤---------------------0-|---------------------------------| (bis)

   |---------------------------------|---------------------------------|
   |-----------------5-----5---------|---------------------------------|
   |-------------------5-------5-----|-0---0---¤-----------------------|
   |-0---0---¤---------------------0-|-------------------0---0-¤-0---X-|

   |---------------------------------|---------------------------------|
   |-----------------5-----5---------|---------------------------------|
   |-------------------5-------5-----|-0---0---¤-----------------------|
   |-0---0---¤---------------------0-|---------------------------------|


[bass fig.1]  (2 fois)

[verse]


chorus :
   |---------------------------------|---------------------------------|
   |-----------------5-----5---------|---------------------------------|
   |-------------------5-------5-----|-0---0---¤-----------------------|
   |-0---0---¤---------------------0-|---------------------------------| (bis)

   |---------------------------------|---------------------------------|
   |-----------------5-----5---------|---------------------------------|
   |-------------------5-------5-----|-0---0---¤-----------------------|
   |-0---0---¤---------------------0-|-------------------0-¤-----0-¤---|

   |---------------------------------|---------------------------------|
   |-----------------5-----5---------|---------------------------------|
   |-------------------5-------5-----|-0---0---¤---1-------------------|
   |-0---0---¤---------------------0-|---------------------------------|


guitar solo :
   [bass fig.1]  (2 fois)


[verse]


chorus :
   |---------------------------------|---------------------------------|
   |-----------------5-----5---------|---------------------------------|
   |-------------------5-------5-----|-0---0---¤-----------------------|
   |-0---0---¤---------------------0-|---------------------------------| (bis)

   |---------------------------------|---------------------------------|
   |-----------------5-----5---------|---------------------------------|
   |-------------------5-------5-----|-0---0---¤-----------------------|
   |-0---0---¤---------------------0-|---------------------------0-¤---|

   |---------------------------------|---------------------------------|
   |-----------------5-----5---------|---------------------------------|
   |-------------------5-------5-----|---------------------------------|
   |-0---0---¤---------------------0-|-¤-------------------------------|



( I Could Have Lied )


Tempo Moderately Slow (69)
intro :
   [guitare]  (4 mesures)


verse :
   [guitare]  (8 mesures)


prechorus :
   [guitare]  (2 mesures)


(bass fig.1)
|---------------------------------|---------------------------------|
|---------------------------------|---------------------------------|
|-2---2-----------2---2-----------|---------------------------------|
|---------------------------------|-5---5-----------3---3-----------| (2 fois)


verse :
   [bass fig.1]  (3 fois)

   |---------------------------------|---------------------------------|
   |---------------------------------|---------------------------------|
   |-2---2-----------2---2-----------|---------------------------------|
   |---------------------------------|-5-----------3---------------¤---|


prechorus :
   |---------------------------------|---------------------------------|
   |---------------------------------|---------------------------------|
   |-2-------------5-¤-5-5-------¤---|---------------------------------|
   |---------------------------------|-5-----------3-------3-------¤---|

   |---------------------------------|---------------------------------|
   |---------------------------------|---------------------------------|
   |-2---2-----------2---2-----------|---------------------------------|
   |---------------------------------|-5---5-----------3---3-----------|


chorus :
   |---------------------------------|---------------------------------|
   |---------------5-¤-5-5-------¤---|---------------------------------|
   |-7-------------------------------|-5---5---¤---3---------------¤---|
   |---------------------------------|---------------------------------|

   |---------------------------------|---------------------------------|
   |---------------5-¤-5-5-------¤---|---------------------------------|
   |-7---7---7---¤-------------------|-5-------¤---3-------3-------¤---|
   |---------------------------------|---------------------------------|


guitar solo :
   |---------------------------------|---------------------------------|
   |---------------------------------|---------------------------------|
   |-2---2---2---2-0-2-0-2-------2---|-----7-------------------5-7---5-|
   |---------------------------------|-5-------5---3-------5-7---------|

   |---------------------------------|---------------------------------|
   |---------------------------------|---------------------------------|
   |-2---2---2---2-0-2-0-2-------2---|-----7-------------------575-----|
   |---------------------------------|-5-------5---3-------5-7-----7-5-|

   |---------------------------------|---------------------------------|
   |---------------------------------|---------------------------------|
   |-2---2---2---2-0-2-0-2-------2---|-----7---------------5-------0---|
   |---------------------------------|-5-------5---3-------------------|

   |---------------------------------|---------------------------------|
   |---------------------------------|---------------------------------|
   |-2---2---2---2-0-2-0-2-------2---|-----7---------------------------|
   |---------------------------------|-5-------5---3-------3-------¤---|

   [bass fig.1]  (2 fois)


[verse]


chorus :
   |---------------------------------|---------------------------------|
   |---------------5-¤-5-5-------¤---|---------------------------------|
   |-7-------------------------------|-5-------¤---3-------3-------¤---|
   |---------------------------------|---------------------------------| (3 fois)

   |---------------------------------|---------------------------------|
   |---------------5-¤-5-5-------¤---|---------------------------------|
   |-7-------------------------------|-5---7---5---3-------3-------¤---|
   |---------------------------------|---------------------------------|


outro :
   |---------------------------------|---------------------------------|
   |-----------------5---5-----------|---------------------------------|
   |-7---7---------------------------|-5---5-----------3---3-----------|
   |---------------------------------|---------------------------------| (4 fois)

   |-9-------------------------------|
   |---------------------------------|
   |---------------------------------|
   |---------------------------------|



( Mellowship Slinky In B Major )


Tempo Moderate Funk (86)
intro :
   (bass fig.1)
   |---------------------------------|---------------------------------|
   |---------------------------------|---------------------------------|
   |-4---¤---3---¤---2---¤-0-5---6---|-7-----------5---7---7---5-7-\---|
   |---------------------------------|---0-¤-0-¤-7---7-----------------|

   |---------------------------------|---------------------------------|
   |---------------------------------|---------------------------------|
   |-4---¤---3---¤---2---¤-0-5---6---|-7-----------5---7-----------5---|
   |---------------------------------|---0-¤-0-¤-7---7---0-¤-0-¤-7---7-|


   [bass fig.1]  (3 mesures)         |-------------------------8-------|
                                     |---------------------------7-----|
                                     |-7-----------5---7-----------9---|
                                     |---0-¤-0-¤-7---7---0-¤---------7-|

   |-------------------------8-------|-------------------------8-------|
   |-9-9-¤-----X-9-9-¤-----X---7-----|-9-9-¤-----X-7-7-¤-----X---7-----|
   |-----------------------------9---|-----------------------------9---|
   |-------------------------------7-|-------------------------------7-|

   |-------------------------8-------|-------------------------8-------|
   |-9-9-¤-----X-9-9-¤-----X---7-----|-----9-----8-----7---¤-X---7-----|
   |-----------------------------9---|-----------------------------9---|
   |-------------------------------7-|-¤-----------------------------7-|


verse :
   (bass fig.2)
   |-------------------------8-------|-------------------------8-------|
   |-9-9-¤-----X-9-9-¤-----X---7-----|-9-9-¤-----X-9-7-¤-----X---7-----|
   |-----------------------------9---|-----------------------------9---|
   |-------------------------------7-|-------------------------------7-|

   |-------------------------8-------|-------------------------8-------|
   |-9-9-¤-----X-9-9-¤-----X---7-----|-----------------------X---7-----|
   |-----------------------------9---|-----------------------------9---|
   |-------------------------------7-|-¤---7-----6-----5---¤---------7-|

   [bass fig.2]  (3 mesures)

   (bass fig.3)
   |-------------------------8-------|
   |-----9-----8-----7---¤-X---7-----|
   |-----------------------------9---|
   |-------------------------------7-|

   [bass fig.2]  (3 mesures)

   |---------------------------------|---------------------------------|
   |-----9-----8-----7---------------|-----------------------7-----8---|
   |----------------------89-----8---|-7-----5-----7--89---------------|
   |---------------------------------|---------------------------------|


   (bass fig.4)
   |-------------------------8-------|-------------------------8-------|
   |-9-9-¤-----X-9-9-¤-----X---7-----|-9-9-¤-----X-9-7-¤-----X---7-----|
   |-----------------------------9---|-----------------------------9---|
   |-------------------------------7-|-------------------------------7-|

   |-------------------------8-------|-------------------------8-------|
   |-9-9-¤-----X-9-9-¤-----X---7-----|-----------------------X---7-----|
   |-----------------------------9---|-----------------------------9---|
   |-------------------------------7-|-¤---7-----6-----5---¤---------7-|

   |-------------------------8-------|-------------------------8-------|
   |-9-9-¤-----X-9-9-¤-----X---7-----|-9-9-¤-----X-9-7-¤-----X---7-----|
   |-----------------------------9---|-----------------------------9---|
   |-------------------------------7-|-------------------------------7-|

   |-------------------------8-------|---------------------------------|
   |-9-9-¤-----X-9-9-¤-----X---7-----|-----9-----8-----7---¤-----------|
   |-----------------------------9---|------------------------/9-----5-|
   |-------------------------------7-|-¤-------------------------------|


chorus :
   |---------------------------------|---------------------------------|
   |-----------------------5-¤-------|-----------------------5-¤-------|
   |-7-5-7---¤-----5-7-5-7-----7---4-|-5-4-5---¤-----4-5-4-5-----4---5-|
   |---------------------------------|---------------------------------|

   |---------------------------------|---------------------------------|
   |-----------------------5-¤-------|---------------------------------|
   |-7-5-7---¤-----5-7-5-7-----7---4-|-5-4-5-4-¤---5-4-5-4-¤---5-4-5-4-|
   |---------------------------------|---------------------------------| (2 fois)

   |---------------------------------|
   |-5-------4-------3---------------|
   |-------------------------5-------|
   |---------------------------------|


verse :
   [bass fig.2]  (3 mesures)
   [bass fig.3]

   [bass fig.4]


[chorus]


guitar solo :
   |---------------------------------|
   |-------------------2-----4-------|
   |/2-----------5---------------2---|
   |---------------------------------| (4 fois)

   |---------------------------------|---------------------------------|
   |/7-----------5/7-----------------|/7-----------5/7-------7---------|
   |-------------------9-----8---7---|-------------------9-----8---7---|
   |---------------------------------|---------------------------------|

   |---------------------------------|-------------------------8-------|
   |---------------------------------|---------------------------7-----|
   |---------------------------------|-----------------------------9---|
   |/5-----------3-----2-----1---0---|/5-----------3-----2---¤-------7-|


verse :
   [bass fig.2]

   [bass fig.2]  (3 mesures)
   [bass fig.3]

   [bass fig.2]  (3 mesures)

   |---------------------------------|
   |-¤---9-----8-----7---¤-----------|
   |---------------------------------|
   |---------------------------------|


outro :
   [bass fig.1]

   [bass fig.1]  (3 mesures)

   |---------------------------------|
   |---------------------------------|
   |-7-----------5---7---------------|
   |---0-¤-0-¤-7---7---0-¤-----------|



( The Righteous And The Wicked )


Tempo Moderately (84)
intro :
                                     |---------------------------------|
                                     |---------------------------------|
                                     |-----------------------------5-5-|
                                     |---------------------------------|
                                     |---------------------------------|

   |---------------------------------|---------------------------------|
   |---------------------------------|---------------------------------|
   |-5-------------------------5-5-5-|-5-----------------7---------5-5-|
   |-----7---5---7-------------------|-----7---5---7-------------------|
   |-----------------0-0-¤-0-¤-------|---------------5-¤---------------|

   |---------------------------------|---------------------------------|
   |---------------------------------|---------------------------------|
   |-5-------------------------------|-----------------------------5-5-|
   |-----7---5---7-------------------|---------------------------------|
   |-----------------0-0-¤-0-¤-------|---------------------------------| (2 fois)


verse :
   (bass fig.1)
   |---------------------------------|---------------------------------|
   |---------------------------------|---------------------------------|
   |-5-------------------------5-5-5-|-5-----------------7---------5-5-|
   |-----7---5---7-------------------|-----7---5---7-------------------|
   |-----------------0-0-¤-0-¤-------|---------------5-¤---------------|


   |---------------------------------|---------------------------------|
   |---------------------------------|---------------------------------|
   |-5-------------------------5-5-5-|-5-----------------8-7-5---------|
   |-----7---5---7-------------------|-----7---5---7-----------7-5-----|
   |-----------------0-0-¤-0-¤-------|---------------5-¤-----------7-5-|

   [bass fig.1]

   |---------------------------------|---------------------------------|
   |---------------------------------|---------------------------------|
   |-5-------------------------5-5-5-|-5-----------------7-----¤-5-----|
   |-----7---5---7-------------------|-----7---5---7-------------------|
   |-----------------0-0-¤-0-¤-------|---------------5-¤---------------|


chorus :
   |---------------------------------|---------------------------------|
   |---------------------------------|---------------------------------|
   |---------------------------5-----|---------------------------5-----|
   |-7-----X-X-------7-----X-X-------|-7-----X-5---7---8-8-¤-8-¤-------|
   |-----------3-/-------------------|---------------------------------|

   |---------------------------------|---------------------------------|
   |---------------------------------|---------------------------------|
   |---------------------------5-----|---------------------------5-----|
   |-7-----X-X-------7-----X-X-------|-7-----X-5---7---8---8---8-------|
   |-----------3-/-------------------|---------------------------------|

   |---------------------------------|---------------------------------|
   |---------------------------------|---------------------------------|
   |---------------------------5-----|---------------------------5-----|
   |-7-----X-X-------7-----X-X-------|-7-----X-5---7---8-8-¤-8-¤-------|
   |-----------3-/-------------------|---------------------------------|

   |---------------------------------|---------------------------------|
   |---------------------------------|---------------------------------|
   |---------------------------5-----|---------------------------------|
   |-7-----X-X-------7-----X-X-------|-7-----X-5---7---8---8---8---¤---|
   |-----------3-/-------------------|---------------------------------|


bridge :
   (bass fig.2)
   |---------------------------------|---------------------------------|
   |---------------------------------|---------------------------------|
   |---------------------------------|---------------------------------|
   |-7---------7-5-4---------¤-4-2-1-|---------0---1---2-2-¤-2-¤-------|
   |---------------------------------|---------------------------------|

   |---------------------------------|---------------------------------|
   |---------------------------------|---------------------------------|
   |---------------------------------|---------------------------------|
   |-7-------7---5---4-------4---2---|-1-----1-0---1---2---2---2---¤---|
   |---------------------------------|---------------------------------|


   [bass fig.2]  (3 mesures)         |---------------------------------|
                                     |---------------------------------|
                                     |-----------------------------5-5-|
                                     |-1-------0---1---2---2---2/6-----|
                                     |---------------------------------|


[verse]


[chorus]


bridge :
   [bass fig.2]


guitar solo :
   |-----------------------------------------|
   |-----------------------------------------|
   |-5-6-5-------5-6-5-------565-------------|
   |-------7-----------7---------7-5-------5-|
   |---------------------------------7-6-7---| (4 fois)

   |-----------------------------------------|
   |-----------------------------------------|
   |-7-8-7-------7-8-7-------787-------------|
   |-------9-----------9---------9-7-------7-|
   |---------------------------------9-8-9---| (2 fois)

   |-----------------------------------------|
   |-----------------------------------------|
   |-5-6-5-------5-6-5-------565-------------|
   |-------7-----------7---------7-5-------5-|
   |---------------------------------7-6-7---| (2 fois)

   |---------------------------------|---------------------------------|
   |---------------------------------|---------------------------------|
   |---------------------------------|-----------------------------5-5-|
   |-2-------------------------------|-2-/-5/6/7/8/9/10/12/20----\-----|
   |---------------------------------|---------------------------------|


[verse]


outro chorus :
   |---------------------------------|---------------------------------|
   |---------------------------------|---------------------------------|
   |---------------------------5-----|---------------------------5-----|
   |-7-----X-X-------7-----X-X-------|-7-----X-5---7---8-8-¤-8-¤-------|
   |-----------3-/-------------------|---------------------------------|

   |---------------------------------|---------------------------------|
   |---------------------------------|---------------------------------|
   |---------------------------5-----|---------------------------5-----|
   |-7-----X-X-------7-----X-X-------|-7-----X-5---7---8---8---8-------|
   |-----------3-/-------------------|---------------------------------|

   |---------------------------------|---------------------------------|
   |---------------------------------|---------------------------------|
   |---------------------------5-----|---------------------------5-----|
   |-7-----X-X-------7-----X-X-------|-7-----X-5---7---8-8-¤-8-¤-------|
   |-----------3-/-------------------|---------------------------------|

   |---------------------------------|-----------------|
   |---------------------------------|-----------------|
   |---------------------------5-----|-----------------|
   |-7-----X-X-------7-----X-X-------|-7-----7-5---7---|
   |-----------3-/-------------------|-----------------|

   |---------------------------------|---------------------------------|
   |---------------------------------|---------------------------------|
   |---------------------------------|---------------------------------|
   |-8---8---8---8---8---8---8---8---|-8---8---8---8---8---8---8---8---|
   |---------------------------------|---------------------------------|

   |---------------------------------|---------------------------------|
   |---------------------------------|---------------------------------|
   |---------------------------------|---------------------------------|
   |-¤-------7-----------------------|---------------------------------|
   |---------------------0-----------|---------------------------------|



( Give It Away )


Tempo Moderate Funk (92)
intro :
   [guitare & batterie]  (3 mesures)
                   T       T
   |---------------------------------|
   |---------------------------------|
   |---------------------------------|
   |---------------5/17\---5/15\-----|


verse :
   (bass fig.1)
   |-------------12\-¤---------------|-------------12--\---¤-----------|
   |-------X-12/14-------------------|-------X-12/14-------------------|
   |-0---¤-------------X-3---¤-0-3---|-0---¤-------------------X-0-3---|
   |---------------------------------|---------------------------------| (6 fois)


chorus :
   |---------------------------------|---------------------------------|
   |---------------------------------|---------------------------------|
   |-0-------¤-----------------------|---------------------------------|
   |-------------------------------3-|-5-------\---¤-----------------3-|

   |---------------------------------|---------------------------------|
   |---------------------------------|---------------------------------|
   |---------------------------------|---------------------------------|
   |-5-------\---¤-----------------3-|-5-------\---¤-------------------|


[verse]


[chorus]


[bass tacet]  (4 mesures)


guitar solo :
   (bass fig.2)
   |---------------------------------|
   |---------------------------------|
   |-------------10\-¤---------------|
   |-0---¤-X-10/12-----0-3---¤-X-3---| (7 fois)

   (bass fig.3)
   |---------------------------------|
   |---------------------------------|
   |---------------------------------|
   |-0--10-0-9-0-7-0-5-0-4-0-3-0-2-0-|


[verse]


chorus :
   |---------------------------------|
   |---------------------------------|
   |-0-------¤-----------------------|
   |---------------------------------|

   [bass tacet]  (3 mesures)


guitar solo :
   [bass fig.2]  (3 fois)
   [bass fig.3]


[verse]


outro chorus :
   [bass fig.1]  (3 fois)

   |-------------12\-¤---------------|-------------12------14--12--12\-|
   |-------X-12/14-------------------|-------X-12/14-----14--14--14----|
   |-0---¤-------------X-3---¤-0-3---|-0---¤---------------------------|
   |---------------------------------|---------------------------------|

   [bass fig.1]

   |-------------12\-¤---------------|-------------12--¤---------------|
   |-------X-12/14-------------------|-------X-12/14-------7-0-5-0-4-0-|
   |-0---¤-------------X-3---¤-0-3---|-0---¤-------------0-------------|
   |---------------------------------|---------------------------------|

   [bass fig.1]

   |-------------12\-¤---------------|-------------12--¤---------------|
   |-------X-12/14-------------------|-------X-12/14-------------------|
   |-0---¤-------------X-3---¤-0-3---|-0---¤-----------------0-3-0-----|
   |---------------------------------|-------------------0-3-------3---|

   [bass fig.1]

   |-------------12\-¤---------------|-------------12--¤---------------|
   |-------X-12/14-------------------|-------X-12/14-------------------|
   |-0---¤-------------X-3---¤-0-3---|-0---¤-----------------0-3-0-----|
   |---------------------------------|-------------------0-3-------3---|

   [bass fig.1]

   |-------------12\-¤---------------|---------------------------------|
   |-------X-12/14-------------------|---------------------------------|
   |-0---¤-------------X-3---¤-0-3---|-0---¤-0-3-0-5-0-6-0-7-0-9-0-10-0|
   |---------------------------------|---------------------------------|

   |---------------------------------|---------------------------------|
   |---------------------------------|---------------------------------|
   |-12------------------------------|---------------------------------|
   |---------------------------------|---------------------------------|



( Blood Sugar Sex Magik )


Tempo Moderately Slow (74)
intro :
   |--------------------------------------|-----------------------------9---12---|
   |--------------(drums)-----------------|-----------------------------7---10---|
   |------------(3-mesures)---------------|--------------------------------------|
   |--------------------------------------|--------------------------------------|

   (bass fig.1)
   |-14/16-¤-12/14-¤-7/9---------9---11---|-12/14-¤-11/12-¤-6/7---------9---12---|
   |-12/14-¤-10/12-¤-5/7---------7----9---|-10/12-¤--9/10-¤-4/5---------7---10---|
   |--------------------------------------|--------------------------------------|
   |--------------------------------------|--------------------------------------| (4 fois)


verse :
   [bass fig.1]  (3 fois)

   |-14/16-¤-12/14-¤-7/9---------9---11---|-12/14-¤-11/12-¤-6/7---------¤--------|
   |-12/14-¤-10/12-¤-5/7---------7----9---|-10/12-¤--9/10-¤-4/5---------¤--------|
   |--------------------------------------|--------------------------------------|
   |--------------------------------------|-------------------------------3/15\--|


chorus :
   |---------------------------------|---------------------------------|
   |---------------------------------|---------------------------------|
   |---------7---5-7---------55------|---------7---5-7-----0---4---5---|
   |-0-0-0-0---0---------------765-3-|-0-0-0-0---0-------3---0---------|

   |---------------------------------|---------------------------------|
   |---------------------------------|---------------------------------|
   |---------7---5-7---------55------|---------7---5-7-----0---4-0-5---|
   |-0-0-0-0---0---------------765-3-|-0-0-0-0---0-------3---0---------|

   |---------------------------------|---------------------------------|
   |---------------------------------|---------------------------------|
   |---------7---5-7---------55------|---------7---5-7-----0---4---5---|
   |-0-0-0-0---0---------------765-3-|-0-0-0-0---0-------3---0---------|

   |---------------------------------|---------------------------------|
   |---------------------------------|---------------------------------|
   |---------7---5-7---------55------|---------7---5-7-----0---4---5---|
   |-0-0-0-0---0---------------765-3-|-0-0-0-0---0-------3---0---------|


bridge :
   |---------------------------------|-------------------------9---12--|
   |---------------------------------|-------------------------7---10--|
   |---------------------------------|---------------------------------|
   |-1---1---1---1---1---1---1---1---|-3---3---3---3---3---¤-----------|

   [bass fig.1]  (2 fois)


[verse]


[chorus]


interlude :
   |---------------------------------|---------------------------------|
   |-5-------------------------------|-7-------------------------7-----|
   |-3-------3-------3-----------3-4-|-5-------5-------5-7-5---5---5/7-|
   |---------------3-----3-----5-----|---------------5-----------------|

   |---------------------------------|---------------------------------|
   |-5-------------------------------|-7-------------------------7-----|
   |-3-------3-------3-4-2---3---4---|-5---5---5---7-0-5-7-5---5---5-4-|
   |---------------3-----------------|---------------------------------|

   |---------------------------------|---------------------------------|
   |-5-------------------------------|-7-----------------------8-------|
   |-3-------3-------3-3-----3---4---|-5---5---5---5---5---5-6-6---6---|
   |---------------3-----3-----------|---------------------------------|


[chorus]


interlude :
   |---------------------------------|---------------------------------|
   |-5-------------------------------|-7-------------------------------|
   |-3-------3-------3---3-------3-4-|-5-------5-------5---5---5-7-5---|
   |---------------3---3-------3-----|---------------5---5-------------|

   |---------------------------------|---------------------------------|
   |-5-------------------------------|-7-----------------7-------------|
   |-3---3---3-------3-2-2---3-0-3-4-|-5---5---5-7-5---5---5---5---45--|
   |---------------3-----------------|---------------------------5-----|

   |---------------------------------|---------------------------------|
   |-5-------------------------------|-7-------------------------------|
   |-3-------3-------3---2---3---4---|-5---5---5---5---5---6---6---6---|
   |---------------3-----------------|---------------------------------|


[chorus]


outro :
   |----------------------|---------------------|----------------------|
   |----------------------|---------------------|----------------------|
   |----------------------|---------------------|----------------------|
   |-0--------------------|---------------------|----------------------|



( Under The Bridge )


Tempo Moderately Slow (68)
intro :
   [guitare]  (8 mesures)

Tempo Faster (76)

verse :
   [guitare]  (8 mesures)

   |---------------------------------|---------------------------------|
   |---------------------------------|---------------------------------|
   |---------------------------------|---------------------------------|
   |-0---0---0---0---0---------------|-----------------¤---------------|


verse :
   [guitare]  (10 mesures)


prechorus :
   |-----6---------------4-----------|-----4---------------------------|
   |-¤---4---¤---2---2-------2-------|---------2---4---4---4---4---¤---|
   |-----------------------------4---|-2-------------------------------|
   |---------------------------------|---------------------------------|

   |-----6---------------4-----------|-----4---------------------------|
   |-¤---4---¤---2---2-------2-------|---------2---4---4---4/6\4/6\4---|
   |-----------------------------4---|-2-------------------------------|
   |---------------------------------|---------------------------------|

   |-----6---------------4-----------|-----4---------------------------|
   |-¤---4---¤---2---2-------2-------|---------2---4---4---4---4---¤---|
   |-----------------------------4---|-2-------------------------------|
   |---------------------------------|---------------------------------|

   |-----6---------------4-----------|-----4---------------------------|
   |-¤---4---¤---2---2-------2-------|---------2---4---------------¤---|
   |-----------------------------4---|-2-------------------------------|
   |---------------------------------|---------------------------------|

   (bass fig.1)
   |---------------------------------|---------------------------------|
   |---------------------------------|---------------------------------|
   |-------------2-------------------|-¤-------------------0-------¤---|
   |-0-------------------------------|-------------4---¤---------------|

   |---------------------------------|---------------------------------|
   |---------------------------------|---------------------------------|
   |-------------2-------------------|-¤---4---¤---0---0-----------¤---|
   |-0-------------------------------|---------------------------------|


verse :
   [bass fig.1]  (2 fois)

   |8/9------------------------------|---------------------------------|
   |---------------------------------|---------------------------------|
   |---------------------------------|---------------------------------|
   |---------------------------------|---------------------------------|


prechorus :
   |-----6---------------4-----------|-----4---------------------------|
   |-¤---4---¤---2---2-------2-------|---------2---4-------4/6-4-2-4---|
   |-----------------------------4---|-2-------------------------------|
   |---------------------------------|---------------------------------|

   |-----6---------------4-----------|-----4---------------------------|
   |-¤---4---¤---2---2-------2-------|---------2---4---\---------------|
   |-----------------------------4---|-2-------------------------------|
   |---------------------------------|---------------------2---2-------|

   |-----6---------------4-----------|-----4---------------------------|
   |-¤---4---¤---2---2-------2-------|---------2---4---4---4---4---¤---|
   |-----------------------------4---|-2-------------------------------|
   |---------------------------------|---------------------------------|

   |-----6---------------4-----------|-----4---------------------------|
   |-¤---4---¤---2---2-------2-------|---------2---4-------4---4---¤---|
   |-----------------------------4---|-2-------------------------------|
   |---------------------------------|---------------------------------|


bridge :
   |-----9---------------------------|-----7-----------------5---------|
   |-7-------7---10------7---5---7---|-5-------5---3-----5/7-----7-5---|
   |---------------------------------|---------------------------------|
   |---------------------------------|---------------------------------|

   |-----9---------------9-----------|-----7-----------------5---------|
   |-7-------7---10107-7-----7-------|-5-------5---3-3-¤-5/7---7-5-7---|
   |-----------------------------0---|---------------------------------|
   |---------------------------------|---------------------------------|

   |-----9---------------------------|-----7-----------------5---------|
   |-7-------7---10------7---5---7---|-5-------5---3-----5/7-----7-5---|
   |---------------------------------|---------------------------------|
   |---------------------------------|---------------------------------|

   |---------------------------------|---------------------------------|
   |---------------------------------|---------------------------------|
   |---------------------------------|---------------------------------|
   |-1-------1---1---1---1---1---1---|-0---0---0---0---3---3---3---3---|


chorus :
   |-----9---------------------------|-----7-----------------5---------|
   |-7-------7---10------7---5---7---|-5-------5---3-----5/7-----7-5---|
   |---------------------------------|---------------------------------|
   |---------------------------------|---------------------------------|

   |-----9---------------9-----------|-----7-----------------5---------|
   |-7-------7---------------7-------|-5-------5---3-3-¤-5/7---7-5-7---|
   |-------------0---------------0---|---------------------------------|
   |---------------------------------|---------------------------------|

   |-----9---------------------------|-----7-----------------5---------|
   |-7-------7---10------7---5---7---|-5-------5---3-----5/7-----7-5---|
   |---------------------------------|---------------------------------|
   |---------------------------------|---------------------------------|

   |-------9-------------9-----------|-----7-----------------5---------|
   |-7---7-------7-----------7-------|-5-------5---3-3-¤-5/7---7-5-7---|
   |-----------------0-----------0---|---------------------------------|
   |---------------------------------|---------------------------------|

   |-----9---------------------------|-----7-----------------5---------|
   |-7-------7---10------7---5---7---|-5-------5---3-----5/7-----7-5---|
   |---------------------------------|---------------------------------|
   |---------------------------------|---------------------------------|

   |-----9---------------9-----------|-----7-----------------5---------|
   |-7-------7---10107-7-----7-------|-5-------5---3-3-¤-5/7---7-5-7---|
   |-----------------------------0---|---------------------------------|
   |---------------------------------|---------------------------------|

   |-----9---------------------------|-----7-----------------5---------|
   |-7-------7---10------7---5---7---|-5-------5---3-----5/7-----7-5---|
   |---------------------------------|---------------------------------|
   |---------------------------------|---------------------------------|

   |-----9-----------9---9-----------|-----7-----------------5---------|
   |-7-------7---------------7-------|-5-------5---3-3-¤-5/7---7-5-7---|
   |-------------0---------------0---|---------------------------------|
   |---------------------------------|---------------------------------|


outro :
   |-----9---------------------------|-----7-----------------5---------|
   |-7-------7---10------7---5---7---|-5-------5---3-----5/7-----7-5---|
   |---------------------------------|---------------------------------|
   |---------------------------------|---------------------------------|

   |---------9-----------9-----------|-----7-------------------575-----|
   |-----------------7-------7-------|-5-------5---3-----5/7-------7-5-|
   |-0-----------0---------------0---|---------------------------------|
   |---------------------------------|---------------------------------|

   |-----9---------------------------|-----7-----------------5---------|
   |-7-------7---10------7---5---7---|-5-------5---3-----5/7-----7-5---|
   |---------------------------------|---------------------------------|
   |---------------------------------|---------------------------------|

   |---------9-----------9-----------|-----7---------------------------|
   |-------------------------7-------|-5-------5---3-------------------|
   |-0-----------0---0-----------0---|---------------------------------|
   |---------------------------------|---------------------------------|

   |---------------------------------|---------------------------------|
   |---------------------------------|---------------------------------|
   |-0-------------------------------|-¤-------------------------------|
   |---------------------------------|---------------------------------|



( Naked In The Rain )


Tempo Moderate Funk Rock (116)
intro :
   |-----------------|-----------------|-----------------|-----------------|
   |-----------------|-----------------|-----------------|-----------------|
   |-0---------------|-----------------|-----------------|-----------------|
   |-----------------|-----------------|-----------------|-----------------|

   (bass fig.1)
     T   T   P   T   T     P   P T
   |---------------------------------|
   |---------5-------------5-¤-5-----|
   |---------------------------------|
   |-3-/-5-------0---3/5---------0---| (4 fois)


verse :
   [bass fig.1]  (8 fois)


prechorus :
   (bass fig.2)
     T   T   P   T   T     P   P T     T   T   P   T   T     P   P T
   |---------7-------------7-¤-7-----|---------7-------------7-¤-7-----|
   |---------------------------------|---------------------------------|
   |-3-/-5-------0---3/5---------0---|-3-----------0---3/5---------0---|
   |---------------------------------|-----0---------------------------|
     T   T   P   T   T     P   P T     T   T   P   T   T     P   P T
   |---------7-------------7-¤-7-----|---------7-------------7-¤-7-----|
   |---------------------------------|---------------------------------|
   |-3-/-5-------0---3/5---------0---|-3-/-5-------0---3/5---------1---|
   |---------------------------------|---------------------------------|

   [bass fig.1]  (2 fois)


[verse]


prechorus :
   [bass fig.2]
   [bass fig.1]  (4 fois)


chorus :
   |-5-------------------------------|---------------------------------|
   |-3-------------------------------|-5-------------------------------|
   |---------------------------------|-3-------------------------------|
   |---------------------------------|---------------------------------|
     T   T   P   T   T     P   P T     T   T   P   T   T     P   P T
   |---------------------------------|---------------------------------|
   |---------5-------------5-¤-5-----|---------5-------------5-¤-5-----|
   |---------------------------------|---------------------------------|
   |-3-/-5-------0---3/5---------0---|-3-/-5-------0---3/5---------0---|
                                                               T   T
   |-5-------------------------------|---------------------------------|
   |-3-------------------------------|-----------------------------3---|
   |-----------------------0-¤-1---2-|-3---------------------/-5-------|
   |---------------------------------|---------------------------------|
     T   T   P   T   T     P   P T     T   T   P   T   T     P   P T
   |---------------------------------|---------------------------------|
   |---------5-------------5-¤-5-----|---------5-------------5-¤-5-----|
   |---------------------------------|---------------------------------|
   |-3-/-5-------0---3/5---------0---|-3-/-5-------0---3/5---------0---|


[verse]


prechorus :
   [bass fig.2]
   [bass fig.1]  (4 fois)


[chorus]


bass solo :
   |---------------------------------|---------------------------------|
   |---------------------------------|---------------------X-3-¤-3-5---|
   |---------X-1---X-3---X-4-¤-4/5---|---------X-1---X34---------------|
   |-3---5-------------------------0-|-3---5-------------------------0-|

   |---------------------------------|-------------7---9-7---9/10-7----|
   |-----------3---0-53--------------|-----------8---8-----8--------8--|
   |---------X---------5-3---4---1---|---------------------------------|
   |-3---5---------------------------|-3---5---¤-----------------------|

   |-12-14-14-12-14-14-12-14-14-12-14-14-10-12-12-9--|-10-10-9---9-8---8-7-7---5---0-5---|
   |-------------------------------------------------|-----------------------------------|
   |-------------------------------------------------|-----------------------------------|
   |-------------------------------------------------|-----------------------------------|

   |-------------------------------------------3-----|-6-6/18--18--18/19-19-17-15-----------|
   |-------------5--3-----------------3-----5-----5--|----------------------------17-\--¤---|
   |----------------------5-----6--------------------|--------------------------------------|
   |-3-----5-----------------------------------------|--------------------------------------|


[verse]


prechorus :
   [bass fig.2]
   [bass fig.1]  (4 fois)


chorus : (!??)
   |-5-------------------------------|---------------------------------|
   |-3-------------------------------|-----------------------------3---|
   |-----------------------0-¤-1---2-|-3---------------------/-5-------|
   |---------------------------------|---------------------------------|
     T   T   P   T   T     P   P T     T   T   P   T   T     P   P T
   |---------------------------------|---------------------------------|
   |---------5-------------5-¤-5-----|---------5-------------5-¤-5-----|
   |---------------------------------|---------------------------------|
   |-3-/-5-------0---3/5---------0---|-3-/-5-------0---3/5---------0---|

   |-5-------------------------------|---------------------------------|
   |-3-------------------------------|-----------------------------3---|
   |-----------------------0-¤-1---2-|-3---------------------/-5-------|
   |---------------------------------|---------------------------------|
     T   T   P   T   T     P   P T     T   T   P   T   T     P   P T
   |---------------------------------|---------------------------------|
   |---------5-------------5-¤-5-----|---------5-------------5-¤-5-----|
   |---------------------------------|---------------------------------|
   |-3-/-5-------0---3/5---------0---|-3-/-5-------0---3/5---------0---|

   |-5-------------------------------|---------------------------------|
   |-3-------------------------------|-5-------------------------------|
   |---------------------------------|-3-------------------------------|
   |---------------------------------|---------------------------------|
     T   T   P   T   T     P   P T     T   T   P   T   T     P   P T
   |---------------------------------|---------------------------------|
   |---------5-------------5-¤-5-----|---------5-------------5-¤-5-----|
   |---------------------------------|---------------------------------|
   |-3-/-5-------0---3/5---------0---|-3-/-5-------0---3/5---------0---|

   |-5-------------------------------|---------------------------------|
   |-3-------------------------------|---------------------------------|
   |-----------------------0-¤-1---2-|-3-------------------------------|
   |---------------------------------|---------------------------------|
     T   T   P   T   T     P   P T     T   T   P   T   T     P   P T
   |---------------------------------|---------------------------------|
   |---------5-------------5-¤-5-----|---------5-------------5-¤-5-----|
   |---------------------------------|---------------------------------|
   |-3-/-5-------0---3/5---------0---|-3-/-5-------0---3/5---------0---|


outro :
   [bass fig.1]  (16 fois)

   |---------------------------------|
   |---------------------------------|
   |---------------------------------|
   |-5-------------------------------|



( Apache Rose Peacock )


Tempo Moderate Funk (95)
intro :
   |---------------------------------|---------------------------------|
   |---------------------------------|---------------------------------|
   |---------------------------X-2---|---------------------------------|
   |-0---------X-0-----X-3-----------|-0---------X-0-----X-5-----X-3---|

   |---------------------------------|---------------------------------|
   |---------------------------------|---------------------------------|
   |---------------------------X-2---|---------------------------------|
   |-0---------X-0-----X-3-----------|-0---------X-0-----X-5---5-3-----|


verse :
   |---------------------------------|---------------------------------|
   |---------------------------------|---------------------------------|
   |---------------------------X-2---|---------------------------------|
   |-0---------X-0-----X-3-----------|-0---------X-0-----X-5-----X-3---|

   |---------------------------------|---------------------------------|
   |---------------------------------|---------------------------------|
   |---------------------------X-2---|---------------------------------|
   |-0---------X-0-----X-3-----------|-0---------X-0---5---5---5-3/4---|

   |---------------------------------|---------------------------------|
   |---------------------------------|---------------------------------|
   |---------------------------X-2---|---------------------------------|
   |-0---------X-0-----X-3-----------|-0---------X-0-----X-5-----X-3---|

   |---------------------------------|---------------------------------|
   |---------------------------------|---------------------------------|
   |---------------------------X-2---|---------------------------------|
   |-0---------X-0-----X-3-----------|-0---------X-0-----X-5---5-3-¤---|


chorus 1 :
   |-----------X-7---\---------------|---------------------------------|
   |---------------------------X-3---|---------------------------------|
   |-5-------¤---------0-3-----------|-0-------¤-X-0---¤-X-3---¤-0-3-4/|
   |---------------------------------|---------------------------------|

   |-----------X-7---\---------------|---------------------5-----------|
   |---------------------------X-3---|----------------/7-------7\5-3---|
   |/5-------¤---------0-3-----------|-0-------¤-0-0-------------------|
   |---------------------------------|---------------------------------|

   |-----------X-7---\---------------|---------------------------------|
   |---------------------------X-3---|-------------------------3-------|
   |-5-------¤---------0-3-----------|-0-------¤-0-0---3---3-----0-3-4/|
   |---------------------------------|---------------------------------|

   |-----------X-7---\---------------|---------------------------------|
   |---------------------------X-3---|-------------------X-0---¤-------|
   |/5-------¤---------0-3-----------|-0-------¤-X-0---¤---------------|
   |---------------------------------|---------------------------0-4---|


bridge :
   |---------------------------------|---------------------------------|
   |-----------------2---¤-4-¤---0-2-|-¤---------------4---5---4---0-2-|
   |-0---¤---4---¤-------------------|---0-¤---4---¤-------------------|
   |---------------------------------|---------------------------------| (3 fois)

   |---------------------------------|---------------------------------|
   |-----------------2---¤-4-¤---0-2-|-¤---------------4---5---4---¤---|
   |-0---¤---4---¤-------------------|---0-¤---4---¤-------------------|
   |---------------------------------|---------------------------------|


chorus 2 :
   |-----------X-7---\---------------|---------------------------------|
   |---------------------------X-3---|-------------------------3-------|
   |-5-------¤---------0-3-----------|-0-------¤-X-0---¤-X-3-----0-3---|
   |---------------------------------|---------------------------------|

   |-----------X-7---\---------------|---------------------------------|
   |---------------------------X-3---|-----------------7-0-6-0-5-0-3-0-|
   |-5-------¤---------0-3-----------|-0-------¤-0-0-------------------|
   |---------------------------------|---------------------------------|

   |-----------X-7---\---------------|---------------------------------|
   |---------------------------X-3---|-----------------------3---------|
   |-5-------¤---------0-3-----------|-0-------¤-0-0---3-4-5---5-3-4---|
   |---------------------------------|---------------------------------|

   |-----------X-7---\---------------|---------------------------------|
   |---------------------------X-3---|---------------------------------|
   |-5-------¤---------0-3-----------|-0---¤---------------------------|
   |---------------------------------|---------------------------------|


interlude :
   |---------------------------------|---------------------------------|
   |---------------------------------|---------------------------------|
   |-7---7---¤-------3---3---¤-------|-5---5---¤-----0-¤-0-0---¤-------|
   |---------------------------------|---------------------------------|

   |---------------------------------|---------------------------------|
   |---------------------------------|---------------------------------|
   |-2---2---5-------2-2-2-2-¤-5-----|-2---2---5-------2-2-2-2-¤-5-----|
   |---------------------------------|---------------------------------|

   |---------------------------------|---------------------------------|
   |---------------------------------|---------------------------------|
   |-7---7---¤-------3---3---¤-------|-5---5---¤-----0-¤-0-0---¤-------|
   |---------------------------------|---------------------------------|

   |---------------------------------|---------------------------------|
   |---------------------------------|---------------------------------|
   |-2---2---5-------2-2-2-2-¤-5-----|-2---2---5-------2---2---2-5-\---|
   |---------------------------------|---------------------------------|


[verse]

[chorus 1]

[bridge]

[chorus 2]

[interlude]

[bridge]

[chorus 2]


outro :
   |---------------------------------|---------------------------------|
   |---------------------------------|---------------------------------|
   |---------------------------X-2---|---------------------------------|
   |-0---------X-0-----X-3-----------|-0---------X-0-----X-5-----X-3---|

   |---------------------------------|---------------------------------|
   |---------------------------------|---------------------------------|
   |---------------------------X-2---|---------------------------------|
   |-0---------X-0-----X-3-----------|-0---------X-0---5---5---5-3/4---|

   |---------------------------------|---------------------------------|
   |---------------------------------|---------------------------------|
   |---------------------------X-2---|---------------------------------|
   |-0---------X-0-----X-3-----------|-0---------X-0-----X-5-----X-3---|

   |---------------------------------|---------------------------------|
   |---------------------------------|---------------------------------|
   |---------------------------X-2---|---------------------------------|
   |-0---------X-0-----X-3-----------|-0---------0-0---5---5---5-3-----|



( The Greeting Song )


Tempo Moderately Fast (136)
intro :
   [guitare]  (2 mesures)

   |---------------------------------|---------------------------------|
   |---------------------------------|---------------------------------|
   |-0-------X---0---¤-0-----3-3-3-3-|-0---¤-3-----0---¤-0-¤---0-0-0-0-|
   |---------------------------------|---------------------------------|

   (bass fig.1)
   |---------------------------------|---------------------------------|
   |---------------------------------|---------------------------------|
   |-0-------X---0---¤-0-----3-3-3-3-|-0---¤-3-----0---¤-3-¤---3-3-3-3-|
   |---------------------------------|---------------------------------|

   |---------------------------------|---------------------------------|
   |---------------------------------|---------------------------------|
   |-0-------X---0---¤-0-----3-3-3-3-|-0---¤-3-----0---¤-0-¤---0-0-0-0-|
   |---------------------------------|---------------------------------|


verse :
   [bass fig.1]  (2 fois)


interlude :
   (bass fig.2)
   |---------------------------------|
   |-------------0-----2---2-3-4-\---|
   |-2-------X-----------------------|
   |---------------------------------| (4 fois)


verse :
   [bass fig.1]  (2 fois)


prechorus :
   [bass fig.2]  (3 fois)

   (bass fig.3)
   |---------------------------------|
   |-5-7-7-7-7---7-7-5-7-7-7-7---7-7-|
   |---------------------------------|
   |---------------------------------|

   [bass fig.2]  (3 fois)
   [bass fig.3]  (1 fois)


chorus :
   (bass fig.4)
   |---------------------------------|---------------------------------|
   |-7-------7-------5-7-----7-------|-5-------5-------4---4---0-2-----|
   |-------------0---------------0---|-------------0-------------------|
   |---------------------------------|---------------------------------| (4 fois)


[verse]

[prechorus]

[chorus]


guitar solo :
   |---------------------------------|-----12------12--10--------------|
   |-------------------------10------|-10------------------12--10------|
   |-8-------8---12------12----------|-----------------------------12--|
   |---------------------------------|---------------------------------|

   |---------------------------------|---------------------------------|
   |---------------------------------|---------------------------------|
   |-12------12--11------11--10------|-10--9-------9---8-------7-------|
   |---------------------------------|---------------------------------| (4 fois)


interlude :
   |---------------------------------|---------------------------------|
   |---------------------------------|---------------------------------|
   |-5---5---5---4---4---4---3---3---|-3---2---2---2---1-------0-------|
   |---------------------------------|---------------------------------| (3 fois)

   |---------------------------------|---------------------------------|
   |---------------------------------|---------------------------------|
   |-6---6---6---5---5---5---4---4---|-4---3---3---3---2---2---1---0---|
   |---------------------------------|---------------------------------|


[chorus]


outro chorus :
   |---------------------------------|---------------------------------|
   |-9-------9-------7-9-----9-------|-7-------7-------6---6-----------|
   |-------------9---------------9---|-------------------------7-9-----|
   |---------------------------------|---------------------------------|

   |---------------------------------|---------------------------------|
   |-9-------9-------7-9-----9-------|-7-------7-------6---6-----------|
   |-------------9---------------9---|-------------------------7-9---0-|
   |---------------------------------|---------------------------------|

   [bass fig.4]  (2 fois)



( My Lovely Man )


Tempo Moderately (114)
intro :
   (bass fig.1)
   |---------------------------------|---------------------7-----------|
   |---------------------------------|-7-----5-----7/9---------9\7-5---|
   |-7-----5-----7-----5-----7---5---|---------------------------------|
   |---------------------------------|---------------------------------|

   |---------------------------------|---------------------------------|
   |---------------------------------|---------------------------------|
   |-7-----5-----7-----5-----7---5---|---------------------5-----------|
   |---------------------------------|-5-----3-----5/7---------7\5-3---|


verse :
   [bass fig.1]  (2 fois)

   |---------------------------------|---------------------------------|
   |---------------------------------|---------------------------------|
   |-7---5---7---5---7---5---7---5---|-7---5---7---5---7---5---7-\-----|
   |---------------------------------|---------------------------------|

   [bass fig.1]  (2 fois)

   [drums - 2 mesures]


chorus :
   (bass fig.2)
   |---------------------------------|---------------------------------|
   |---------------------------------|---------------------------------|
   |---------------------------------|---------------------------------|
   |-¤---5---¤-3-----5---¤-5-¤-3-5-5-|-¤---7---¤-7-----7---¤-7-¤-7-7-7-|

   |---------------------------------|---------------------------------|
   |---------------------------------|---------------------------------|
   |-¤---5-7-7-7-7---5-7---7-¤-7-7-7-|-¤---5-7-7-7-7---5-7---7-¤-5---7\|
   |---------------------------------|---------------------------------| (3 fois)


   |---------------------------------|---------------------------------|
   |---------------------------------|---------------------------------|
   |---------------------------------|---------------------------------|
   |-¤---5---¤-3-----5---¤-5-¤-3-5-5-|-¤---7---¤-7-----7---¤-7-¤-7-7-7-|

   |---------------------------------|---------------------------------|
   |---------------------------------|---------------------------------|
   |-¤---5-7-7-7-7---5-7---7-¤-7-7-7-|-¤---5-7-7-7-7---7---¤---7---¤---|
   |---------------------------------|---------------------------------|


verse :
   [bass fig.1]  (2 fois)

   [drums - 2 mesures]


interlude :
   |---------------------------------|---------------------------------|
   |---------------------------------|---------------------------------|
   |---------------------------------|---------------------------------|
   |-¤---5---¤-3-----5---¤-5-¤-3-5-5-|-¤---7---¤-7-----7---¤-7-¤-7-7-7-|

   |---------------------------------|---------------------------------|
   |---------------------------------|-----------------------5-¤-------|
   |-¤---5-7-7-7-7---5-7---7-¤-7-7-7-|-¤---5-7-7-7-¤---5-7-------7-5-7\|
   |---------------------------------|---------------------------------|

   |---------------------------------|-----------4---------------------|
   |---------------------------------|---------------------------------|
   |---------------------------------|-----0-2-¤-----2-2---¤-2-¤-2-2-2-|
   |-¤---5---¤-3-----5---¤-5-¤-3-5-5-|-¤-------------------------------|

   |---------------------------------|---------------------------------|
   |---------------------------------|-----------------575-----575-----|
   |-¤---5-7-7-7-7---5-7---7-¤-7-7-7-|-¤---5-7-7-7---¤-----7-------7---|
   |---------------------------------|---------------------------------|

   |---------------------------------|---------------------------------|
   |---------------------------------|---------------------------------|
   |---------------------------------|---------------------------------|
   |-¤---5---¤-3-----5---¤-5-¤-3-5-5-|-¤---7---¤-7-----7---¤-7-¤-7-7-7-|

   |---------------------------------|---------------------------------|
   |---------------------------------|-----------------------5-¤-------|
   |-¤---5-7-7-7-7---5-7---7-¤-7-7-7-|-¤---5-7-7-7-¤---5-7-------7-5-7\|
   |---------------------------------|---------------------------------|

   |---------------------------------|-----------------------4-¤-------|
   |---------------------------------|---------------------------------|
   |---------------------------------|-----2---¤-2-----2---------2-2-2-|
   |-¤---5---¤-3-----5---¤-5-¤-3-5-5-|-¤-------------------------------|

   |---------------------------------|---------------------------------|
   |---------------------------------|---------------------------------|
   |-¤---5-7-7-7-7---5-7---7-¤-7-7-7-|-¤---5-7-7-7---5-7---¤-----------|
   |---------------------------------|---------------------------------|


guitar solo :
   |-------------------------7-7-9-9-|-------------------------7-7-----|
   |-------5-5-5-7-7-7-9-9-9---------|-------5-5-5-7-7-7-9-9-9-----9-9-|
   |-7-7-7---------------------------|-7-7-7---------------------------|
   |---------------------------------|---------------------------------| (4 fois)

   |---------------------------------|---------------------------------|
   |---------------------------------|---------------------------------|
   |-7-----5-----7-----5-----7---5---|---------------------5-----------|
   |---------------------------------|-5-----3-----5/7---------7\5-3---| (4 fois)


verse :
   [bass fig.1]  (2 fois)

   [drums]  (2 mesures)


outro chorus :
   [bass fig.2]  (4 fois)

   |---------------------------------|---------------------------------|
   |---------------------------------|---------------------------------|
   |---------------------------------|---------------------------------|
   |-¤---5---¤-3-----5---¤-5-¤-3-5-5-|-¤---7---¤-7-----7---¤-7-¤-7-7-7-|

   |---------------------------------|---------------------------------|
   |---------------------------------|---------------5-8-\-7---5-------|
   |-¤---5-7-7-7-7---5-7---7-¤-7-7-7-|-¤---5-7-7-7-7-------------7-5-\-|
   |---------------------------------|---------------------------------|

   [bass fig.2]

   |---------------------------------|---------------------------------|
   |---------------------------------|---------------------------------|
   |---------------------------------|---------------------------------|
   |-¤---5---¤-3-----5---¤-5-¤-3-5-5-|-¤---7---¤-7-----7---¤-7-¤-7-7-7-|

   |-----------------7--/--12--------|-----14----14--------------------|
   |-----------9-----------------14--|-¤---------------------12--------|
   |-¤---7---------------------------|-----------------14----------14\-|
   |---------------------------------|---------------------------------|

   [bass fig.2]

   |---------------------------------|---------------------------------|
   |---------------------------------|---------------------------------|
   |---------------------------------|---------------------------------|
   |-¤---5---¤-3-----5---¤-5-¤-3-5-5-|-¤---7---¤-7-----7---¤-7-¤-7-7-7-|

   |---------------------------------|---------------------------------|
   |---------------------------------|---------------------------------|
   |-¤---5-7-7-7-7---7---¤-7-¤---7---|-¤---7---¤-7-----7-\-------------|
   |---------------------------------|-----------------------0-¤-0-0---|

   |---------------------------------|---------------------------------|
   |---------------------------------|---------------------------------|
   |---------------------------------|---------------------------------|
   |-X---5---X-5-----5---------------|-X---7-----7-----7---------------|

   |---------------------------------|---------------------------------|
   |---------------------------------|---------------------------------|
   |-¤---7-----7-----7---------------|---------------------------------|
   |---------------------------------|---------------------------------|



( Sir Psycho Sexy )


Tempo Moderate Funk (77)
intro :
   (bass fig.1)
   |---------------------------------|---------------------------------|
   |-2---------------------0-¤---0---|-2-------------------0-----------|
   |---------1---2---4---------------|---------1---2---4-----4-¤-------|
   |---0-----------------------0---0-|---0-----------------------------|

   |---------------------------------|---------------------------------|
   |-2---------------------0-¤---0---|-2-------0---2-0-¤---------------|
   |---------1---2---4---------------|---------------------------------|
   |---0-----------------------0---0-|---0-----------------------------|


verse :
   (bass fig.2)
   |---------------------------------|---------------------------------|
   |-2---------------------0-¤---0---|-2-------------------0-----------|
   |---------1---2---4---------------|---------1---2---4-----4-¤-------|
   |---0-----------------------0---0-|---0-----------------------------|

   |---------------------------------|---------------------------------|
   |-2---------------------0-¤---0---|-2---------------0---0---0---0---|
   |---------1---2---4---------------|---------1---2-------------------|
   |-------0-------------------0---0-|---0-----------------------------|

   [bass fig.1]


bridge :
   [bass fig.2]


verse :
   [bass fig.1]

   |---------------------------------|---------------------------------|
   |-2---------------------0-¤---0---|-2-------------------0-----------|
   |---------1---2---4---------------|---------1---2---4-----4-¤-------|
   |---0-----------------------0---0-|---0-----------------------------|

   |---------------------------------|-------6-7-----------------------|
   |-2---------------------0-¤---0---|-----5---------------------------|
   |---------1---2---4---------------|-7-7-------0-4-5-5-------¤-------|
   |---0-----------------------0---0-|---------------------------------|

   [bass fig.1]


chorus :
   |-----0-----0-¤---0-----0-¤-------|---------0-----------0-----------|
   |---------3-----------3-----------|---------------------------------|
   |---------------------------------|---------------------------------|
   |-3-------------------------X-3---|-----3-----3-¤---3-----3-¤-X-3---| (3 fois)

   |-----0-----0-¤---0-----0-¤-------|---------------------------------|
   |---------3-----------3-----------|---------------------------------|
   |-----------------------------1---|---------------------------------|
   |---------------------------------|---------------------------------|


bridge :
   [bass fig.1]


verse :
   [bass fig.2]

   [bass fig.1]

   [bass fig.2]

   |---------------------------------|---------------------------------|
   |-2---------------------0-¤---0---|-2-------------------0-----------|
   |---------1---2---4---------------|---------1---2---4-----4-¤-------|
   |---0-----------------------0---0-|---0-----------------------------|

   |---------------------------------|---------------------------------|
   |-2---------------------0-¤---0---|---------------------------------|
   |---------1---2---4---------------|-7---------------5-------¤-------|
   |---0-----------------------0---0-|---0-----6---7-------------------|


[chorus]


interlude :
   |---------------------------------|---------------------------------|
   |---------------------------------|---------------------------------|
   |-0-------0-------0---------------|-0-------0---3---0---------------|
   |---0-3-0---0-3-0-------3-¤-0-3-0-|---0-3-0---0-----------3-¤-0-3-0-|

   |---------------------------------|---------------------------------|
   |---------------------------------|-------------0-------------------|
   |-0-------0-------0---------------|-0-------0-------3-----0-¤-------|
   |---0-3-0---0-3-0-------3-¤-0-3-0-|---0-3-0---0---------------0-3-0-|

   |---------------------------------|---------------------------------|
   |---------------------------------|---------------------------------|
   |-0-------0-------0---------------|-0-------0---3---0---------------|
   |---0-3-0---0-3-0-------3-¤-0-3-0-|---0-3-0---0-----------3-¤-0-3-0-|

   |---------------------------------|---------------------------------|
   |---------------------------------|-------------------0-----¤-1-----|
   |-0-------0-------0---------------|-0-------0-----------------------|
   |---0-3-0---0-3-0-------3-¤-0-3-0-|---0-3-0---0-3---¤---------------|

   |---------------------------------|
   |-2-------------------------------|
   |---------------------------------|
   |---------------------------------|


verse :
   [bass fig.1]

   |---------------------------------|---------------------------------|
   |-2---------------------0-¤---0---|-2-------------------0-----------|
   |---------1---2---4---------------|---------1---2---4-----4-¤-------|
   |---0-----------------------0---0-|---0-----------------------------|

   |---------------------------------|---------------------------------|
   |-2---------------------0-¤---0---|---------------------------------|
   |---------1---2---4---------------|-0-------------------------------|
   |---0-----------------------0---0-|---------------------------------|


bridge :
   (bass fig.3)
   |---------------9-----------------|---------------------------------|
   |-----------6/7-------------------|---------------------------------|
   |-7-------------------------------|-9-------------------------------|
   |---------------------------------|---------------7-----------------|

   |--------------/11-9--------------|---------------------------------|
   |-----------6/7-------------------|---------------------------------|
   |-7-------------------------------|-6-----------9-------------------|
   |---------------------------------|---------------7-----------------|

   |---------------9-----------------|---------------------------------|
   |-----------6/7-------------------|-1-------------------------------|
   |-7-------------------------------|---------------2-----------------|
   |---------------------------------|---------------------------------|


   |---------------------------------|---------------------------------|
   |---------------------------------|---------------------------------|
   |-0-------0-------0-------0-------|-2---2---2---------------¤-------|
   |-----0-------0-------0-------0---|---------------------------------|

   [bass fig.3]

   |---------------------------------|---------------------------------|
   |-----------------0---------------|-----------------0-------4---¤---|
   |-3-----------3-----------3-------|-2-----------2-------------------|
   |---------------------------------|---------------------------------|


verse :
   [bass fig.1]

   |---------------------------------|---------------------------------|
   |-2---------------------0-¤---0---|-2-------------------0-----------|
   |---------1---2---4---------------|---------1---2---4-----4-¤-------|
   |---0-----------------------0---0-|---0-----------------------------|

   |---------------------------------|---------------------------------|
   |-2---------------------0-¤---0---|-----5-6-------------------------|
   |---------1---2---4---------------|-7-0-----7-0-----5-------¤-------|
   |---0-----------------------0---0-|-------------6-7-----------------|

   [bass fig.1]


outro :
   |---------------------------------|---------------------------------|
   |-2---------------2---2-------2---|-1---------------1---1-------1---|
   |---------------2---2-------2-----|---------------1-----------------|
   |---------------------------------|---------------------------------|

   |---------------------------------|---------------------------------|
   |---------------------------------|-0---------------0---0-------0---|
   |-1---------------1---1-------1---|---------------------------0-----|
   |---------------------------------|---------------------------------|

   |---------------------------------|---------------------------------|
   |-------------------------1-------|---------------------------------|
   |---------------------------------|-3---------------3---3-------3---|
   |-4---------------4---------------|---------------3-----------------|

   |---------------------------------|---------------------------------|
   |---------------------------------|---------------------------------|
   |---------------------------------|---------------------------------|
   |-4---------------4-------4---4---|-3---3---3---3---3---3---3---3---|

   |---------------------------------|---------------------------------|
   |-2---------------2---2-------2---|-1---------------1---1-------1-0-|
   |---------------2---2-------2-----|---------------1---1-------------|
   |---------------------------------|---------------------------------|

   |---------------------------------|---------------------------------|
   |-------------------------------0-|-0---0---0-------0---0-------0---|
   |-1-------------------------3-4---|---------------0---0-------0-----|
   |---------------------------------|---------------------------------|

   |---------------------------------|---------------------------------|
   |-------------------------4-------|---------------------------------|
   |---------------------------------|-3---------------3---3-------3---|
   |-4---------------4---------------|---------------3-----------------|

   |---------------------------------|---------------------------------|
   |---------------------------------|---------------------------------|
   |---------------------------------|---------------------------------|
   |-4-------------4-4---4---4---4---|-3---3---3---3---3---3---3---3---|

   |---------------------------------|---------------------------------|
   |-2---------------2---2-------2---|-1---------------1---1-----------|
   |---------------2---2-------2-----|---------------------------------|
   |---------------------------------|---------------------------------|

   |---------------------------------|---------------------------------|
   |-----------------------------3---|-0---------------0---0-------0-0-|
   |-1-------------1-1---1-----------|---------------------------------|
   |---------------------------------|---------------------------------|

   |---------------------------------|---------------------------------|
   |-------------------------1-------|---------------------------------|
   |---------------------------------|-3---------------3---3-------3---|
   |-4---------------4---------------|---------------3-----------------|

   |---------------------------------|---------------------------------|
   |---------------------------------|---------------------------------|
   |---------------------------------|---------------------------------|
   |-4---------------4-------4-------|-3---3---3---3---3---3---3---3---|

   |---------------------------------|---------------------------------|
   |-2-------2-------2---2-------2-2-|-1-------1-------1-1---1-1---1-1-|
   |---------------2---2-------2-----|---------------1-----1-----1-----|
   |---------------------------------|---------------------------------|

   |---------------------------------|---------------------------------|
   |---------------------------------|-0---0---0-------0---0-------0---|
   |-1---------------1-1-1-----0-3-4-|---------------0---0-------0-----|
   |---------------------------------|---------------------------------|

   |---------------------------------|---------------------------------|
   |-------------------------1-------|---------------------------------|
   |---------------------------------|-3---------------3---3-------3---|
   |-4---------------4---------------|---------------3-----------3-----|

   |---------------------------------|---------------------------------|
   |---------------------------------|---------------------------------|
   |---------------------------------|---------------------------------|
   |-4---------------4-------4-------|-3---3---3---3---3---3---3---3---|

   (repeat and fade)
   |---------------------------------|---------------------------------|
   |-2-------2-------2---2---2---2-2-|-1---1-----------1---1---1---1---|
   |---------------2---2---2---2-----|---------------1---1---1---1-----|
   |---------------------------------|---------------------------------|

   |---------------------------------|---------------------------------|
   |---------------------------3-2-1-|-0-------0-------0---0-------0---|
   |-1---------------1---1-----------|---------------0---0-------------|
   |---------------------------------|---------------------------------|

   |---------------------------------|---------------------------------|
   |-------------------------1-------|---------------------------------|
   |---------------------------------|-3---------------3---3-------3---|
   |-4---------------4---------------|---------------3-----------------|

   |---------------------------------|---------------------------------|
   |---------------------------------|---------------------------------|
   |---------------------------------|---------------------------------|
   |-4---------------4-------4-------|-3---3---3---3---3---3---3---3---|



( They're Red Hot )


Tempo Very Fast (304)
chorus 0 :
   |---------------------------------|---------------------------------|
   |---------------------------------|---------------------------------|
   |-3-------3-------2-------2-------|---------------------------------|
   |---------------------------------|-5-------5-------¤---5---5-------|

   |---------------------------------|---------------------------------|
   |---------------------------------|---------------------------------|
   |-5-------5-----------------------|-3-------3-------¤-------3-------|
   |-----------------3-------3-------|---------------------------------|

   |---------------------------------|---------------------------------|
   |---------------------------------|---------------------------------|
   |-3-------3-------2-------2-------|---------------------------------|
   |---------------------------------|-5-------5-------¤---5---5-------|

   |---------------------------------|---------------------------------|
   |-0-------0-------0-------0-------|---------------------------------|
   |---------------------------------|---------------------------------|
   |---------------------------------|-3-------3-------¤---3---3-------|


verse :
   |---------------------------------|---------------------------------|
   |---------------------------------|---------------------------------|
   |-3-------------------------------|-------------------------3-------|
   |---------------------------------|---------------------------------|

   |---------------------------------|---------------------------------|
   |---------------------------------|---------------------------------|
   |---------------------------------|---------------------------------|
   |-5-----------------------5-------|-4-----------------------4-------|


chorus 1 :
   |---------------------------------|---------------------------------|
   |---------------------------------|---------------------------------|
   |-3-------3-------2-------2-------|---------------------------------|
   |---------------------------------|-5-------5-------¤---5---5-------|

   |---------------------------------|---------------------------------|
   |---------------------------------|---------------------------------|
   |-5-------5-----------------------|-3-------3-------¤-------3---4---|
   |-----------------3-------3-------|---------------------------------|

   |---------------------------------|---------------------------------|
   |---------------------------------|---------------------------------|
   |-5-------5-----------------------|-3-------3-------¤-------3-------|
   |-----------------3-------3-------|---------------------------------|


chorus 2 :
   |---------------------------------|---------------------------------|
   |---------------------------------|---------------------------------|
   |-3-------3-------2-------2-------|---------------------------------|
   |---------------------------------|-5-------5-------¤---5---5-------|

   |---------------------------------|---------------------------------|
   |---------------------------------|---------------------------------|
   |-5-------5-----------------------|-3-------3-------¤-------3-------|
   |-----------------3-------3-------|---------------------------------|

   |---------------------------------|---------------------------------|
   |---------------------------------|---------------------------------|
   |-3-------3-------2-------2-------|---------------------------------|
   |---------------------------------|-5-------5-------¤---5---5-------|

   |---------------------------------|---------------------------------|
   |---------4-------5-------7-------|---------------------------------|
   |-5-------------------------------|---------------------------------|
   |---------------------------------|-3-------3-------¤---3---3-------|


[verse]

[chorus 1]

[chorus 2]

[verse]

[chorus 1]

[chorus 2]

[verse]


chorus 3 :
   |---------------------------------|---------------------------------|
   |---------------------------------|---------------------------------|
   |-3-------3-------2-------2-------|---------------------------------|
   |---------------------------------|-5-------5-------¤---5---5-------|

   |---------------------------------|---------------------------------|
   |---------------------------------|---------------------------------|
   |-5-------5-----------------------|-3-------3-------¤-------3---4---|
   |-----------------3-------3-------|---------------------------------|

   |---------------------------------|---------------------------------|
   |---------------------------------|---------------------------------|
   |-5-------5-----------------------|-3-------3-------3-------¤-------|
   |-----------------3-------3-------|---------------------------------|

(   )

E-Stat

( Pochette | Paroles | << Préc | Suiv >>
_

[Sommaire] | [Peppers] | [Discographie] | [Paroles] | [Tablatures] | [News!]
[Images] | [Articles] | [Concerts] | [Bonus] | [Liens] | [A Propos]