( Tablatures de Basse )
_

Tablatures
de l'album
Mother's Milk
* non disponible

( Pochette | Paroles | << Préc | Suiv >>
_



( Good Time Boys )


Tempo ??
INTRO:

G-|-7-7---7-7---(19-times)------|
D-|-------------------------------------|
A-|-------------------------------------|
E-|-------------------------------------|


RIFF 1:

G-|-------------------------------------------|-------------------------------------|
D-|-------------------------------------------|-------------------------------------|
A-|-----5/7/5/7-------------5-------------|------5/7/5/7---------------------|
E-|-0--------------5--6--7-----7--5--3--|--0--------------6--5--3----------|


PRE-VERSE:

G-|-6--------6-------|
D-|----5--------5----|
A-|-------5-----------|
E-|-------------------|


VERSE: 

G-|---------------------------------------------------------------------------------------------|
D-|---------------------------------5----------------------------------------------------------|
A-|------5--7--5--7--5--7--5------------5--7-------5--7--5--7--5--7------------------|
E-|-0------------------------------------7---------0--------------------------5--3----------|


PRE-CHORUS:

G-|---------------------------------------------|------------------------------------------------|
D-|-------------------5-----------------7--7--|----------------------5------------------------|
A-|-5--7-7--5--7-----7-7--5--7------------|--5--7-7--5--7-------7--5-----------------|
E-|---------------------------------------------|---------------------------------7--6--5--3--|


CHORUS:

G-|---------------------------------|--------------------------------------------------|
D-|---------------------------------|--------------------------------------------------|
A-|---------5--7----7----7--5---|---------5--7------------------------------------|
E-|-7----7---------------------7--|-7----7----------3--3--3--3--3--3--3--3----|


INTERLUDE:

G-|----------3--4------------------------------------------------------------------------------------|
D-|-5--3-----------5--3--0--2/3------------------------------------------------------------------|
A-|-------5--------------------------3--1----3--1--3/4--3--1--3--1----------------------------|
E-|--------------------------------------------------------------------------3--1--3----------------|

G-|-------------------3--------------------------|
D-|----------------3-----------------------------|
A-|-1--3--4--5--------5--4--3----1----------|
E-|--------------------------------------1--3---|


WAAAAAAAIT ! Don't smash your bass on the screen! If you didn't get a part,
if you have any question, comment, joke...e-mail me.
Tabbed by Anthony M.
E-MAIL: 76752.3042@compuserve.com



( Higher Ground )


Tempo 140
intro and most of song
g|-----------------------------|
d|-------2-----------5-----7---|  pluck
a|-----------------------------|
e|-0---0-----0---3-3---5-5-----|  slap

g|-----------------------------|
d|-------2-----------5---7-----|  pluck
a|-----------------------------|
e|-0---0-----0---3-3---5---x---|  slap

flea does that many of times and switches to this and does it 2x's
g---------------------------2---------------4---  pluck
d-----------4-----------------------------------  pluck
a-------------------0-0------------2-2----------  slap
e---2-2------2----------------------------------  slap



( Subway To Venus )


Tempo ??
Désolé!!!
Tablature non disponible...



( Magic Johnson )


Tempo ??
Désolé!!!
Tablature non disponible...



( Nobody Weird Like Me )


Tempo ??
It's easier to play than to tab this song!
Flea probably use all finger style ( style that consist playing string with
4 fingers or sometimes with 5 finger ), that's the sound more similar


Verse 1 :

|---5---7----5---7----5---7---5---*7-----5---7-----...--12-12^^-------
|-0---0---0----0---0----0---0---*----*0----0---0---...----------------
|--------------------------------------------------...----------------
|--------------------------------------------------...----------------


Chorus :

|---------------------------------------------------------------------
|---------------------------------------------------------------------
|-3----5---3----------------------------------------------------------
|---0--------0---3---5------------------------------------------------


Bridge :

|-------------7-7-9---------------------------------------------------
|----7-7--9-9---------------------------------------------------------
|--7------------------------------------------------------------------
|---------------------------------------------------------------------


Solo :

impossible to realize! :o) I tab here the live part (taken in live box)
...that is the circus jingle

|-12-11-10-11-10-9-8-7-6-7-8-7-6-7-6-5-4-3-2-3------------------------
|---------------------------------------------------------------------
|---------------------------------------------------------------------
|---------------------------------------------------------------------
  P  P  P  P  P  P P P P P P P P P P P P P P P



( Knock Me Down )


Tempo Moderately fast
Intro:
G-|------------------|------------------|------------------|
D-|------------------|------------------|------------------|
A-|-----3---5h7-7-5--|-----3---5h7-7-5--|-----3---5h7-7-5--|
E-|-3h5---5----------|-3h5---5----------|-3h5---5----------|

G-|---------------------|---------------------|-------------------|------|
D-|---------------------|---------------------|-------------------|------|
A-|-----3---5h7-3h5-5-5-|-----3---5h7-3h5-5-5-|-----3---5h7-3h5-5-|------|
E-|-3h5---5-------------|-3h5---5-------------|-3h5---5-----------|-1----|


Verse 1:
G-|-----------------|-------------|--------------|----------------|
D-|-----------------|-------------|--------------|----------------|
A-|-3h5--5-5--------|-----------3-|-5-5--3-3--1--|-1-1-1h3-3h5p3--|
E-|----------5-5--3-|-3--3-3--5---|--------------|----------------|

G-|-------------------|-------------|-----------------|-----------------|
D-|-------------------|-------------|-----------------|-----------------|
A-|-3h5-5-------------|-------------|-----------------|-----------------|
E-|--------5-5---5-3--|-3-3-3/5-3-3-|-5-5-5-5-5-5-5-5-|-6-6-6-6-6-6-6-6-|
                                      ^   ^   ^   ^     ^   ^   ^   ^

G-|-------------------|--------------|-----------------------|
D-|-------------------|--------------|-----------------------|
A-|-7-7-7-7p5---------|----------5-7-|-3h5-5-5p3-3-3-3h5-5h7-|
E-|------------7-7--5-|-5-5--5/7-----|-----------------------|

G-|----------------|-----------------|-----------------|-----------------|
D-|----------------|-----------------|-----------------|-----------------|
A-|-7-7-7-7--------|-----------------|-----------------|-----------------|
E-|---------7--7-5-|-5-5--5/7-7\5--7-|-7-7-7-7-7-7-7-7-|-8-8-8-8-8-8-8-8-|
                                       ^   ^   ^   ^     ^   ^   ^   ^

Chorus:
G-|-----------5-|-----------5-|-----------9-|---------------------|
D-|-------------|-------------|-------------|---------------------|
A-|-5--5-3-3x---|-5--5-3-3x---|-------7x----|-3/5-x----------3/5--|
E-|-------------|-------------|-5-5x--------|-------5\3-5\3-------|
    T  T T TT P   T  T T TT P   T TT  TT  P   T   T T   T    T
Reapet two times


Pre-2nd verse:
G-|---------------------|-----------------|-----------------------------|
D-|---------------------|------------5----|-------------------5---------|
A-|-5-5---5-------------|----5-5-5h7--5h7-|-5-5--5--------5/7---7\5-3-3-|
E-|----------5-5-5--3-3-|-3---------------|---------5-5-----------------|


Verse 2:
G-|-----------------|-------------|--------------|----------------|
D-|-----------------|-------------|--------------|----------------|
A-|-3h5--5-5--------|-----------3-|-5-5--3-3--1--|-1-1-1h3-3h5p3--|
E-|----------5-5--3-|-3--3-3--5---|--------------|----------------|

G-|-------------------|-------------|-----------------|-----------------|
D-|-------------------|-------------|-----------------|-----------------|
A-|-3h5-5-------------|-------------|-----------------|-----------------|
E-|--------5-5---5-3--|-3-3-3/5-3-3-|-5-5-5-5-5-5-5-5-|-6-6-6-6-6-6-6-6-|
                                      ^   ^   ^   ^     ^   ^   ^   ^

Bridge:
G-|-------------------|---------------|-------------|----------------|
D-|-------------------|---------------|-------------|-----4-2h4-2p0--|
A-|-7-7-7-5h7---------|---------------|-4-4--4------|----------------|
E-|-----------7-7-7-7-|-5/7-5-5-5h7p5-|--------4--4-|-2-2------------|

G-|-------------------|---------------|-------------|----------------|
D-|-------------------|---------------|-------------|-----4-4-4-4\---|
A-|-7-7-7-5h7---------|---------------|-4-4--4------|---------


Legend: ^ = play note with accent



( Taste The Pain )


Tempo ??
Désolé!!!
Tablature non disponible...



( Stone Cold Bush )


Tempo ??
Intro:

  VVVV VVV  V     VVVV V     V  V     V
||----|----------|----|3-5-3-5-3---------|
||----|----------|----|------------------|
||----|----------|----|---------1-3-1-3-1|
||3-3-|3-3-0-1-2-|3-3-|------------------|

Verse:

    V     V V     V  V     V V  V     V     V V     V  V     V   V     V
||------------------|----------------|----------------|3-5-3-5-3------------||
||o-----------------|----------------|----------------|--------------------o||
||o-----------------|----------------|----------------|----------1-3-1-3-1-o||
||--0-2-3-3-0-2-3-3-|0-2-3-3-3-0-1-2-|0-2-3-3-0-2-3-3-|---------------------||
    (___)   (___)    (___)            (___)   (___)
      3       3        3                3       3

Chorus:

  V   V   V   V   V   V   V   V   V   V   V   V     V   V   V     V
||----------------|---------------*|---------------|------------------||
||o---------------|---------------*|---------------|-----------------o||
||o---------------|---------------*|----1-------1--|----1-----1---1--o||
||-8-8-8-8-8-8-8-8|6-6-6-6-5-5-5-5*|3-3---3-3-3---3|3-3---3-3---3---3-||
   + + + + + + + + + + + + + + + +  + ^ + + + ^ +   + + ^ + + ^ + ^ +

Go to solo after *'s on the second repeat of the second chorus.

BASS SOLO:

  V  v    V    v  Vv V v  V    v   V     v  V v    V  v
||-----12-------10--9--10|---12-----------10---15~--12-|
||--------10h12----------|-------X-10h12-----X---------|
||10-X-------------------|10---------------------------|
||-----------------------|-----------------------------|
  +  + ^  +     ^   ^  ^  +  ^   + +      ^  + ^    ^

 V  v   V  v     V   v    V  v V v  V  v  V  v V v
|-----12-----------10-----10~-|--15-14-13-12------|
|--------X-10h12--------------|-------------------|
|10-X------------------X------|-------------------|
|-----------------------------|--------------6-5-4|
 +  + ^  + +       ^   +  ^      ^  ^  ^  ^  + + +

  V v   V  v V v  V  v V v  V  v V v V v
|----------------------|-------------------||
|o----5----------3-----|----5-------------o||
|o---------------------|-------------1-0--o|| ? times.
|-3-X----3p0-1-X----1p0|3-X----3p0-1-----4-||
  + + ^  +   + + ^  +   + + ^  +   + + + +

  V     V     V     V     V  V  V  V
||-----------------------|12----10---|
||-----------------------|-----------|
||-----------------------|-----------|
||10-10-10-10-10-10-10-10|-----------|
  +  +  +  +  +  +  +  +  ^     ^

This bar 3 times then... this once.
Then back to Intro followed by the verse followed by the chorus and then...

    V v V v V v V v
||----3---3---3---3--|| This bit is where I get a
||o-----------------o|| little bit dodgy on the
||o-----------------o|| transcribing!
||--3---3---3---3----||
    + ^ + ^ + ^ + ^

End :

 V v V v V v V     V VVV
|--3---3---------|-------||
|----------------|-------||
|----------------|-------||
|3---3-----6-5-4-|-3-----||
 + ^ + ^   + + +



Above the line:
   V = The downbeat. Hence four in each bar.
   v = The upbeat. As in one-AND-two-AND-... THe AND is the upbeat.
   >NB. I have only put the upbeat in the the bits that need it, mostly the solo.

Below the line:
   (___) = Triplet
     3
   + = Slap with thumb
   ^ = Pop with finger.

In the TAB:
   ||--
   ||o- = The beginning of a repeat.
   ||o-   The end is the same but backwards
   ||--

   ~ = Vibrato. I think, but I'm not sure that is correct.
   10h12 = Hammer-on from 10th fret to 12th.
   3p0 = Pull-off from 3rd to open.
   X = A slap where the note is muted.



( Fire )


Tempo ??
intro
g------------------------------
d--6-5-----3--5----------------
a--------5----------5-5--------
e------------------------------

verse
g-----------------
d-----------------
a---0--3--5-5-----
e-----------------

Chorus
g---------------------------------------
d---------------------------------------
a--5-5-----------------2-2-3-3-4-4------
e---------2--3--5---5-------------------

Guitar Solo---"ah move over and let mr huckleberry take over" part
repeat each several times
g-------7------------5h7----------5---------
d-------------------------------------------
a--5-----------0-0-----------3--------------
e-------------------------------------------

after the last chorus play the first chorus once then this
and keep alternating
g----------------------------------------
d----------------------------------------
a-7--7--------------4-4-5-5-6-6----------
e-------4-5-7----7-----------------------

this tab is complete so dont cry to me. this version eats Jimi's alive



( Pretty Little Ditty )


Tempo ??
I tabbed this myself by studying the CD and the live version on Psychadelic
Sex Funk Live From Heaven. It sounds much better on the video. Johns guitar
work and Fleas walking bass is amazing.

+ = Slap with thumb
. = Pop with finger
~ = Hand vibrato


     +  .   .     + .   .   .   .  .. + .   .~~~~~~+ .   .   .   .
[-------10--12------10--12--12--10-XX---10--12-------10--12--12--10------]
[------------------------------------------------------------------------]
[------------------------------------------------------------------------]
[----8------------8-------------------8------------8---------------------]


Play this twice
[---------5---5---------5-----5------------5---5---------5-----5---------]
[-------5---5---5----5-----5-----5-------5---5---5----5------5-----5-----]
[----3------------3-------------------3------------3---------------------]
[------------------------------------------------------------------------]


     +  .   .     + .   .   .   .  .. + .   .      + .   .   .   .
[-------10--12------10--12--12--10-XX---10--12-------10--12--12--10------]
[------------------------------------------------------------------------]
[------------------------------------------------------------------------]
[----8------------8-------------------8------------8---------------------]

Play the rest as a walking bass line

Play this twice
[------------------------------------------------------------------------]
[-----10-9-7-7-7-/-10-10-12-12-12------10-9-7-7-7---7--7--9--9--9--------]
[----0--0-0-0-0---0--0--0--0--0-------0--0-0-0-0---0--0--0--0--0---------]
[------------------------------------------------------------------------]

Play this 4 times
[------------------------------------------------------------------------]
[------11-12-14-12-11-14-16-17-16-14---16-17-19-17-16-16-17-19-17-16-----]
[-----0--0--0--0--0--0--0--0--0--0----0--0--0--0--0--0--0--0--0--0-------]
[------------------------------------------------------------------------]

[--------]
[--------]
[-----0--]
[--------]



( Punk Rock Classic )


Tempo ??
Désolé!!!
Tablature non disponible...



( Sexy Mexican Maid )


Tempo ??
Désolé!!!
Tablature non disponible...



( Johnny, Kick A Hole In The Sky )


Tempo ??
Désolé!!!
Tablature non disponible...


(   )

E-Stat

( Pochette | Paroles | << Préc | Suiv >>
_

[Sommaire] | [Peppers] | [Discographie] | [Paroles] | [Tablatures] | [News!]
[Images] | [Articles] | [Concerts] | [Bonus] | [Liens] | [A Propos]