( Tablatures de Basse )
_

Tablatures
de l'album
The Uplift Mofo Party Plan
* non disponible

( Pochette | Paroles | << Préc | Suiv >>
_



( Fight Like A Brave )


Tempo ??
Désolé!!!
Tablature non disponible...



( Funky Crime )


Tempo ??
intro :
   |---------|---------|---------|---------|---------|---------|
   |---------|---------|---------|---------|---------|---------|
   |---------|---------|-2-------|---------|---------|-4---¤---|
   |-5-------|-1-------|---------|-3-------|-6-------|---------|


verse :
   (bass fig.1)
   |----------------------|-------------------------|
   |----------------------|---------------------5-5-|
   |-5-5-5-5-5-5-6-7-(3-4)|-5-5-5-5-5-5-6-7---------|
   |----------------------|-----------------4-x-----|

   [bass fig.1]  (3 times)


chorus :
   |--------------------|---------------------------|
   |--------------------|---------------------------|
   |--------------------|---------------------------|
   |-9/10-x-7/9-6-5--4--|-9/10-x-7/9--6--5--4-4-4-4-| (2 times)


[verse]
   
[chorus]

[bass fig.1]  (2 times)


verse :
   |--------------------|-----------------------------|
   |--------------------|------------------------4--4-|
   |--------------------|-7-7-7-7-7-7-8-9-------------|
   |-2-2-2-2-2-2-2-2----|------------------x-2-2------| (4 times)


interlude :
     P     P P T P T   P         T  T  T  T     
   |-------------2---|---------|--------------|
   |-4-----4-2-------|-4---2---|--------------|
   |-----------4-----|---------|--------------|
   |-----------------|---------|-0--2--5--2---|

     P     P P T P P   P         P  P  P  P   
   |-------------2---|---------|-6--4---------|
   |-4-----4-2-------|-4---2---|-------7--4---|
   |-----------4-----|---------|-4--2---------|
   |-----------------|---------|-------5--2---|

     P     P P T P     P   P     T     T  T
   |-------------2---|---------|--------------|
   |-4-----4-2-------|-4---2---|--------------|
   |-----------4-----|---------|--------------|
   |-----------------|---------|-0 h2--5--2---|

     P     P P T P P   P         P  P  P  P  
   |-------------2---|---------|--------------|
   |-4-----4-2-------|-4---2---|-1--2--3--4---|
   |-----------4-----|---------|--------------|
   |-----------------|---------|--------------|

     P  P  P  P  P  P  P         P
   |-2--1--0-------------------|--------------|
   |----------4--3--2--1-------|-0------------|
   |---------------------------|--------------|
   |---------------------------|--------------|


[verse]

[chorus]

[bass fig.1]  (2 times)


outro :
   |----------------------|-------------------------|
   |----------------------|---------------------535-|
   |-5-5-5-5-5-5-6-7-(3-4)|-2-2-2-2-2-2-2-2---------|
   |----------------------|-----------------4-x-----|



( Me And My Friends )


Tempo ??
intro :
   |-------------9---|-------------11--|
   |-----7-\-10------|-----7-\-10------|
   |-0---------------|-0---------------|
   |-----------------|-----------------| (2 times)

   |-11p9----11p9----|-11p9----11p9----|
   |------10------10-|------10------10-|
   |-----------------|-----------------|
   |-----------------|-----------------| (2 times)


chorus :
   (bass fig.1)
   |-------------------------------|
   |-7p5---7p5---7p5---7p5---7p5---|
   |-----7-----7-----7-----7-----7-|
   |-------------------------------|

   |---------------|---------------|
   |-------5h7-----|-------5h7-----|
   |-5-5-5-----5-5-|-5-5-5-----5-5-|
   |---------------|---------------|

   [bass fig.1]  (3 times)


verse :
   (bass fig.2) SLAP
   |-------------------------------------|
   |-------------------------------------|
   |-----------5-5-5-5-------------5-5---|
   |-0--0-0---------------0-0-0----------|

   [bass fig.2]  (8 times)


chorus :
   [bass fig.1]  (4 times)

verse :
   [bass fig.2]  (9 times)

guitar solo :
   [bass fig.2]  (8 times)

chorus :
   [bass fig.1]  (2 times)


interlude :
   |-5h7--5h7--5h7--5h7--5h7--|
   |--------------------------|
   |--------------------------|
   |--------------------------| (8 times)


verse :
   [bass fig.2]  (4 times)

chorus :
   [bass fig.1]  (4 times)


outro :
   |----------------------------------------|
   |-7p5---7p5---7p5---7p5---7p5------7-7-7-|
   |-----7-----7-----7-----7-----7----------|
   |----------------------------------------|



( Backwoods )


Tempo ??
intro :
   [bass tacet]  (4 mesures)

   (bass fig.1)
     T T P  P  P  P T P  P   T T P  P  P  P T P  P
   |-----------------------|-----------------------|
   |-----4--4--4--4---4--4-|-----4--4--4--4---4--4-|
   |-----------------------|-----------------------|
   |-2-x------------2------|-2-x------------2------| (2 times)


verse :
   [bass fig.1]  (2 times)


chorus :
     T T   P T  T T P  T T  P   T  T  P T  T T P  T T P
   |--------------------------|-------------------------|
   |-------2--------7-------9-|-------2--------7------9-|
   |--------------------------|-------------------------|
   |-2--2----2--5-5----7-7----|-2--2----2--5-5----7-7---| (2 times)


[verse]

[chorus]


interlude :
   |---------------------------------|
   |---------------------------------|
   |-0h2-0h2-0h2-0h2-0h2-0h2-0h2-0h2-|
   |---------------------------------| (4 times)


[chorus]

[guitar solo]


bridge :
     T  T T  T  T  T T  T T  T  T T   T  T T  T  T T  T   T  T   T  T T
   |--------------------------------|-----------------------------------|
   |--------------------------------|-----------------------------------|
   |--------------------------------|-----------------------------------|
   |-2--x-2--2--2--2-2--x-2--2--2-2-|-2--x-2--2--x-2--0/2-2--0/2-2--2-2-|

     T  T T  T  T  T T  T T  T  T T   T  T T  T  T P T  T P T  T  T P
   |--------------------------------|-----------------------------------|
   |--------------------------------|--------------4------4---------2h4-|
   |--------------------------------|-----------------------------------|
   |-2--x-2--2--2--2-2--x-2--2--2-2-|-2--x-2--2--x---2--2---2--x--2-----|


   Played with varitions. Frequently used variations showed below :

     T  T T  T PT P T  T T  T  T T   T   T   T   T   T  T T  T  T T   
   |-------------------------------|--------------------------------|
   |-----------4--4----------------|--------------------------------|
   |-------------------------------|--------------------------------|
   |-2--x-2--2--2---x--2-x--0--2-2-|-2/5/7\5/8\2/12\-2--x-2--2--x-2-|

     T  T T T P P T T  T T  T  T T   T  T T  T T  T  T  T  T T T  T  P
   |------------4------------------|-----------------------------------|
   |----------4--------------------|---------------------------------4-|
   |--------------x----------------|-----------x--0--2-----------------|
   |-2--x-2-2-------2--x-2--2--x-2-|-2--x-2--2----------2--x-2-2--2----|


outro chorus :
   [chorus]  (2 times)

     T  T T  T
   |------------|
   |------------|
   |------2-----|
   |-2--2----2--|



( Skinny Sweaty Man )


Tempo ??
verse :
       T   T P T P T   T P T P
   |---------------------0---9---|
   |---------7---7---------------|
   |---5h7---------5h7-0---------|
   |-------x---x-----------0-----| (8 times)


chorus :
   |---7-6-5-4---------------9---|
   |------------5-6-7-8----------|
   |---------------------7-7-----|
   |-----------------------------|


[verse]

[chorus]


vocal/bass fill :
   |----------????????-----------|
   |----------????????-----------|
   |---7-5-7--????????-----------|
   |----------????????-----------|


[verse]

[chorus]



( Behind The Sun )


Tempo ??
Désolé!!!
Tablature non disponible...



( Subterranean Homesick Blues )


Tempo ??
Désolé!!!
Tablature non disponible...



( Party In Your Pussy )


Tempo ??
intro :
   |----------------------------------------------------------------------------4--5--|
   |---------------------------------------------------------------------3------------|
   |-5--5--5--5----5--3----------5--3-------5--3----------3--5------5---------3--2----|
   |-------------------------5--3----------5----------5--1----------------------------|

   |-------------------------------------------------------------------------|-----|
   |-------------------------------------------------------------------------|-----|
   |-5--5--5--5----5--3----------5--3-------5--3-------------------2-3--2-3--|--5--|
   |-------------------------5--3----------5----------5--1------1--3---------|-----|


verse :
   |----------------------------------------------------------------|
   |----------------------------------------------------------------|
   |-5--5--5--5----5--3----------5--3-------5--3----------2-2---3-3-|
   |-------------------------5--3----------5----------5--1----------|

   |--------------------------------------------------------------------|
   |--------------------------------------------------------------------|
   |-5--5--5--5----5--3----------5--3-------5--3----------2--3--4(1/4)--|
   |-------------------------5--3----------5----------5--1--------------|


chorus 1 :
   |-------|-----------------------|--------|------------------------------|
   |-------|-----------------------|--------|-------3----------------------|
   |-5--5--|--3--------3--------3--|--5--5--|---5------5--3----------------|
   |-------|-----5--3-----5--3-----|--------|------------------4--4--3--1--|


chorus 2 : (right after the singing-only interlude)

   |-------|-----------------------|--------|----------------------------|
   |-------|-----------------------|--------|------5---------------------|
   |-7--7--|--5---------5--------5-|--7--7--|--7-----7--5----------------|
   |-------|-----7--5-----7--5-----|--------|----------------6--6--5--3--|


interlude :
   |----------------------------------------------------------------------------------------------------|
   |-7--5------5-----------------------------------------------------------------------------------4--5-|
   |---------7------7--5--7----5--3--5--3-------3---3(1/4)----------------------------------------------|
   |---------------------------------------------5------------------5--3--5--5--x--x--------------------| 


guitar solo : (beggining - from end interlude until next chorus)

   |----|-----|-----|----|----|-----|
   |----|-----|-----|----|--3-|--2--|
   |-5--|--3--|--5--|--3-|----|-----|
   |----|-----|-----|----|----|-----|


outro :
   |-10------------------------------------------|
   |------12--10---------------------------------|
   |----------------12--10--11--10---------------|
   |-------------------------------------13--10--|



( No Chump Love Sucker )


Tempo ??
Désolé!!!
Tablature non disponible...



( Walkin' On Down The Road )


Tempo ??
Désolé!!!
Tablature non disponible...



( Love Trilogy )


Tempo ??
Désolé!!!
Tablature non disponible...



( Organic Anti-Beat Box Band )


Tempo ??
Désolé!!!
Tablature non disponible...

(   )

E-Stat

( Pochette | Paroles | << Préc | Suiv >>
_

[Sommaire] | [Peppers] | [Discographie] | [Paroles] | [Tablatures] | [News!]
[Images] | [Articles] | [Concerts] | [Bonus] | [Liens] | [A Propos]